  0
SECTION
  2
HEADER
  9
$ACADVER
  1
AC1015
  9
$ACADMAINTVER
 70
     6
  9
$DWGCODEPAGE
  3
ANSI_1254
  9
$INSBASE
 10
0.0
 20
0.0
 30
0.0
  9
$EXTMIN
 10
0.0
 20
0.0
 30
0.0
  9
$EXTMAX
 10
279.4
 20
215.9
 30
0.0
  9
$LIMMIN
 10
0.0
 20
0.0
  9
$LIMMAX
 10
279.4
 20
215.9
  9
$ORTHOMODE
 70
     0
  9
$REGENMODE
 70
     1
  9
$FILLMODE
 70
     1
  9
$QTEXTMODE
 70
     0
  9
$MIRRTEXT
 70
     1
  9
$LTSCALE
 40
1.0
  9
$ATTMODE
 70
     1
  9
$TEXTSIZE
 40
3.5
  9
$TRACEWID
 40
1.0
  9
$TEXTSTYLE
  7
Standard
  9
$CLAYER
  8
0
  9
$CELTYPE
  6
ByLayer
  9
$CECOLOR
 62
   256
  9
$CELTSCALE
 40
1.0
  9
$DISPSILH
 70
     0
  9
$DIMSCALE
 40
1.0
  9
$DIMASZ
 40
3.5
  9
$DIMEXO
 40
1.0
  9
$DIMDLI
 40
3.75
  9
$DIMRND
 40
0.0
  9
$DIMDLE
 40
0.0
  9
$DIMEXE
 40
1.0
  9
$DIMTP
 40
0.0
  9
$DIMTM
 40
0.0
  9
$DIMTXT
 40
3.5
  9
$DIMCEN
 40
2.5
  9
$DIMTSZ
 40
0.0
  9
$DIMTOL
 70
     0
  9
$DIMLIM
 70
     0
  9
$DIMTIH
 70
     1
  9
$DIMTOH
 70
     1
  9
$DIMSE1
 70
     0
  9
$DIMSE2
 70
     0
  9
$DIMTAD
 70
     1
  9
$DIMZIN
 70
     0
  9
$DIMBLK
  1

  9
$DIMASO
 70
     1
  9
$DIMSHO
 70
     1
  9
$DIMPOST
  1

  9
$DIMAPOST
  1

  9
$DIMALT
 70
     0
  9
$DIMALTD
 70
     3
  9
$DIMALTF
 40
0.0393700787
  9
$DIMLFAC
 40
1.0
  9
$DIMTOFL
 70
     1
  9
$DIMTVP
 40
0.0
  9
$DIMTIX
 70
     0
  9
$DIMSOXD
 70
     0
  9
$DIMSAH
 70
     0
  9
$DIMBLK1
  1

  9
$DIMBLK2
  1

  9
$DIMSTYLE
  2
ISO-25
  9
$DIMCLRD
 70
     0
  9
$DIMCLRE
 70
     0
  9
$DIMCLRT
 70
     0
  9
$DIMTFAC
 40
1.0
  9
$DIMGAP
 40
1.524
  9
$DIMJUST
 70
     0
  9
$DIMSD1
 70
     0
  9
$DIMSD2
 70
     0
  9
$DIMTOLJ
 70
     0
  9
$DIMTZIN
 70
     0
  9
$DIMALTZ
 70
     0
  9
$DIMALTTZ
 70
     0
  9
$DIMUPT
 70
     0
  9
$DIMDEC
 70
     2
  9
$DIMTDEC
 70
     2
  9
$DIMALTU
 70
     2
  9
$DIMALTTD
 70
     3
  9
$DIMTXSTY
  7
Standard
  9
$DIMAUNIT
 70
     0
  9
$DIMADEC
 70
     2
  9
$DIMALTRND
 40
0.0
  9
$DIMAZIN
 70
     0
  9
$DIMDSEP
 70
    44
  9
$DIMATFIT
 70
     3
  9
$DIMFRAC
 70
     0
  9
$DIMLDRBLK
  1

  9
$DIMLUNIT
 70
     2
  9
$DIMLWD
 70
    -2
  9
$DIMLWE
 70
    -2
  9
$DIMTMOVE
 70
     0
  9
$LUNITS
 70
     2
  9
$LUPREC
 70
     2
  9
$SKETCHINC
 40
1.0
  9
$FILLETRAD
 40
10.0
  9
$AUNITS
 70
     0
  9
$AUPREC
 70
     2
  9
$MENU
  1
.
  9
$ELEVATION
 40
0.0
  9
$PELEVATION
 40
0.0
  9
$THICKNESS
 40
0.0
  9
$LIMCHECK
 70
     0
  9
$CHAMFERA
 40
0.0
  9
$CHAMFERB
 40
0.0
  9
$CHAMFERC
 40
0.0
  9
$CHAMFERD
 40
0.0
  9
$SKPOLY
 70
     0
  9
$TDCREATE
 40
2460390.355120301
  9
$TDUCREATE
 40
2460390.230120301
  9
$TDUPDATE
 40
2460390.355120486
  9
$TDUUPDATE
 40
2460390.230120486
  9
$TDINDWG
 40
0.0000000116
  9
$TDUSRTIMER
 40
0.0000000116
  9
$USRTIMER
 70
     1
  9
$ANGBASE
 50
0.0
  9
$ANGDIR
 70
     0
  9
$PDMODE
 70
     0
  9
$PDSIZE
 40
-1.0
  9
$PLINEWID
 40
0.0
  9
$SPLFRAME
 70
     0
  9
$SPLINETYPE
 70
     6
  9
$SPLINESEGS
 70
     8
  9
$HANDSEED
  5
10F
  9
$SURFTAB1
 70
     6
  9
$SURFTAB2
 70
     6
  9
$SURFTYPE
 70
     6
  9
$SURFU
 70
     6
  9
$SURFV
 70
     6
  9
$UCSBASE
  2

  9
$UCSNAME
  2

  9
$UCSORG
 10
0.0
 20
0.0
 30
0.0
  9
$UCSXDIR
 10
1.0
 20
0.0
 30
0.0
  9
$UCSYDIR
 10
0.0
 20
1.0
 30
0.0
  9
$UCSORTHOREF
  2

  9
$UCSORTHOVIEW
 70
     0
  9
$UCSORGTOP
 10
0.0
 20
0.0
 30
0.0
  9
$UCSORGBOTTOM
 10
0.0
 20
0.0
 30
0.0
  9
$UCSORGLEFT
 10
0.0
 20
0.0
 30
0.0
  9
$UCSORGRIGHT
 10
0.0
 20
0.0
 30
0.0
  9
$UCSORGFRONT
 10
0.0
 20
0.0
 30
0.0
  9
$UCSORGBACK
 10
0.0
 20
0.0
 30
0.0
  9
$PUCSBASE
  2

  9
$PUCSNAME
  2

  9
$PUCSORG
 10
0.0
 20
0.0
 30
0.0
  9
$PUCSXDIR
 10
1.0
 20
0.0
 30
0.0
  9
$PUCSYDIR
 10
0.0
 20
1.0
 30
0.0
  9
$PUCSORTHOREF
  2

  9
$PUCSORTHOVIEW
 70
     0
  9
$PUCSORGTOP
 10
0.0
 20
0.0
 30
0.0
  9
$PUCSORGBOTTOM
 10
0.0
 20
0.0
 30
0.0
  9
$PUCSORGLEFT
 10
0.0
 20
0.0
 30
0.0
  9
$PUCSORGRIGHT
 10
0.0
 20
0.0
 30
0.0
  9
$PUCSORGFRONT
 10
0.0
 20
0.0
 30
0.0
  9
$PUCSORGBACK
 10
0.0
 20
0.0
 30
0.0
  9
$USERI1
 70
     0
  9
$USERI2
 70
     0
  9
$USERI3
 70
     0
  9
$USERI4
 70
     0
  9
$USERI5
 70
     0
  9
$USERR1
 40
0.0
  9
$USERR2
 40
0.0
  9
$USERR3
 40
0.0
  9
$USERR4
 40
0.0
  9
$USERR5
 40
0.0
  9
$WORLDVIEW
 70
     1
  9
$SHADEDGE
 70
     3
  9
$SHADEDIF
 70
    70
  9
$TILEMODE
 70
     1
  9
$MAXACTVP
 70
    64
  9
$PINSBASE
 10
0.0
 20
0.0
 30
0.0
  9
$PLIMCHECK
 70
     0
  9
$PEXTMIN
 10
1.0000000000E+20
 20
1.0000000000E+20
 30
1.0000000000E+20
  9
$PEXTMAX
 10
-1.0000000000E+20
 20
-1.0000000000E+20
 30
-1.0000000000E+20
  9
$PLIMMIN
 10
0.0
 20
0.0
  9
$PLIMMAX
 10
420.0
 20
297.0
  9
$UNITMODE
 70
     0
  9
$VISRETAIN
 70
     1
  9
$PLINEGEN
 70
     0
  9
$PSLTSCALE
 70
     1
  9
$TREEDEPTH
 70
  3020
  9
$CMLSTYLE
  2
Standard
  9
$CMLJUST
 70
     0
  9
$CMLSCALE
 40
20.0
  9
$PROXYGRAPHICS
 70
     1
  9
$MEASUREMENT
 70
     1
  9
$CELWEIGHT
370
    -1
  9
$ENDCAPS
280
     0
  9
$JOINSTYLE
280
     0
  9
$LWDISPLAY
290
     1
  9
$INSUNITS
 70
     4
  9
$HYPERLINKBASE
  1

  9
$STYLESHEET
  1

  9
$XEDIT
290
     1
  9
$CEPSNTYPE
380
     0
  9
$PSTYLEMODE
290
     1
  9
$FINGERPRINTGUID
  2
{16210019-a01a-40f4-aace-06b85e45c963}
  9
$VERSIONGUID
  2
{FAEB1C32-E019-11D5-929B-00C0DF256EC4}
  9
$EXTNAMES
290
     1
  9
$PSVPSCALE
 40
0.0
  9
$OLESTARTUP
290
     0
  0
ENDSEC
  0
SECTION
  2
CLASSES
  0
CLASS
  1
ACDBDICTIONARYWDFLT
  2
AcDbDictionaryWithDefault
  3
ObjectDBX Classes
 90
        0
280
     0
281
     0
  0
CLASS
  1
VISUALSTYLE
  2
AcDbVisualStyle
  3
ObjectDBX Classes
 90
     4095
280
     0
281
     0
  0
CLASS
  1
MATERIAL
  2
AcDbMaterial
  3
ObjectDBX Classes
 90
     1153
280
     0
281
     0
  0
CLASS
  1
SCALE
  2
AcDbScale
  3
ObjectDBX Classes
 90
     1153
280
     0
281
     0
  0
CLASS
  1
TABLESTYLE
  2
AcDbTableStyle
  3
ObjectDBX Classes
 90
     4095
280
     0
281
     0
  0
CLASS
  1
MLEADERSTYLE
  2
AcDbMLeaderStyle
  3
ACDB_MLEADERSTYLE_CLASS
 90
     4095
280
     0
281
     0
  0
CLASS
  1
SUN
  2
AcDbSun
  3
SCENEOE
 90
     1153
280
     0
281
     0
  0
CLASS
  1
ACDBPLACEHOLDER
  2
AcDbPlaceHolder
  3
ObjectDBX Classes
 90
        0
280
     0
281
     0
  0
CLASS
  1
LAYOUT
  2
AcDbLayout
  3
ObjectDBX Classes
 90
        0
280
     0
281
     0
  0
ENDSEC
  0
SECTION
  2
TABLES
  0
TABLE
  2
VPORT
  5
8
330
0
100
AcDbSymbolTable
 70
     1
  0
VPORT
  5
29
330
8
100
AcDbSymbolTableRecord
100
AcDbViewportTableRecord
  2
*Active
 70
     0
 10
0.0
 20
0.0
 11
1.0
 21
1.0
 12
139.7
 22
107.95
 13
0.0
 23
0.0
 14
10.0
 24
10.0
 15
10.0
 25
10.0
 16
0.0
 26
0.0
 36
1.0
 17
0.0
 27
0.0
 37
0.0
 40
215.9
 41
1.2941176471
 42
50.0
 43
0.0
 44
0.0
 50
0.0
 51
0.0
 71
     0
 72
  2000
 73
     1
 74
     3
 75
     0
 76
     0
 77
     0
 78
     0
281
     0
 65
     1
110
0.0
120
0.0
130
0.0
111
1.0
121
0.0
131
0.0
112
0.0
122
1.0
132
0.0
 79
     0
146
0.0
  0
ENDTAB
  0
TABLE
  2
LTYPE
  5
5
330
0
100
AcDbSymbolTable
 70
     6
  0
LTYPE
  5
14
330
5
100
AcDbSymbolTableRecord
100
AcDbLinetypeTableRecord
  2
ByBlock
 70
     0
  3

 72
    65
 73
     0
 40
0.0
  0
LTYPE
  5
15
330
5
100
AcDbSymbolTableRecord
100
AcDbLinetypeTableRecord
  2
ByLayer
 70
     0
  3

 72
    65
 73
     0
 40
0.0
  0
LTYPE
  5
16
330
5
100
AcDbSymbolTableRecord
100
AcDbLinetypeTableRecord
  2
Continuous
 70
     0
  3
Solid line
 72
    65
 73
     0
 40
0.0
  0
LTYPE
  5
6E
330
5
100
AcDbSymbolTableRecord
100
AcDbLinetypeTableRecord
  2
HIDDEN
 70
     0
  3
Hidden __ __ __ __ __ __ __ __ __ __ __ __ __ __
 72
    65
 73
     2
 40
1.905
 49
1.27
 74
     0
 49
-0.635
 74
     0
  0
LTYPE
  5
6F
330
5
100
AcDbSymbolTableRecord
100
AcDbLinetypeTableRecord
  2
PHANTOM
 70
     0
  3
Phantom ______  __  __  ______  __  __  ______
 72
    65
 73
     6
 40
12.7
 49
6.35
 74
     0
 49
-1.27
 74
     0
 49
1.27
 74
     0
 49
-1.27
 74
     0
 49
1.27
 74
     0
 49
-1.27
 74
     0
  0
LTYPE
  5
70
330
5
100
AcDbSymbolTableRecord
100
AcDbLinetypeTableRecord
  2
CENTER
 70
     0
  3
Center ____ _ ____ _ ____ _ ____ _ ____ _ ____
 72
    65
 73
     4
 40
10.16
 49
6.35
 74
     0
 49
-1.27
 74
     0
 49
1.27
 74
     0
 49
-1.27
 74
     0
  0
LTYPE
  5
71
330
5
100
AcDbSymbolTableRecord
100
AcDbLinetypeTableRecord
  2
CENTERX2
 70
     0
  3
Center (2x) ________  __  ________  __  _____
 72
    65
 73
     4
 40
20.32
 49
12.7
 74
     0
 49
-2.54
 74
     0
 49
2.54
 74
     0
 49
-2.54
 74
     0
  0
LTYPE
  5
72
330
5
100
AcDbSymbolTableRecord
100
AcDbLinetypeTableRecord
  2
DOT2
 70
     0
  3
Dot (.5x) ........................................
 72
    65
 73
     2
 40
0.635
 49
0.0
 74
     0
 49
-0.635
 74
     0
  0
ENDTAB
  0
TABLE
  2
LAYER
  5
2
330
0
100
AcDbSymbolTable
 70
    17
  0
LAYER
  5
10
330
2
100
AcDbSymbolTableRecord
100
AcDbLayerTableRecord
  2
0
 70
     0
 62
     7
  6
Continuous
370
    -3
390
F
  0
LAYER
  5
73
330
2
100
AcDbSymbolTableRecord
100
AcDbLayerTableRecord
  2
FORMAT
 70
     0
 62
     7
  6
Continuous
370
    -3
390
F
  0
LAYER
  5
74
330
2
100
AcDbSymbolTableRecord
100
AcDbLayerTableRecord
  2
YARDIMCI_GEOMETRI
 70
     0
 62
    -6
  6
Continuous
290
     0
370
    -3
390
F
  0
LAYER
  5
75
330
2
100
AcDbSymbolTableRecord
100
AcDbLayerTableRecord
  2
SAYFA_CERCEVESI
 70
     0
 62
     7
  6
Continuous
370
    25
390
F
  0
LAYER
  5
76
330
2
100
AcDbSymbolTableRecord
100
AcDbLayerTableRecord
  2
ANTET
 70
     0
 62
     7
  6
Continuous
370
    -3
390
F
  0
LAYER
  5
77
330
2
100
AcDbSymbolTableRecord
100
AcDbLayerTableRecord
  2
OLCU
 70
     0
 62
   150
  6
Continuous
370
    -3
390
F
  0
LAYER
  5
78
330
2
100
AcDbSymbolTableRecord
100
AcDbLayerTableRecord
  2
METIN
 70
     0
 62
    96
  6
Continuous
370
    -3
390
F
  0
LAYER
  5
79
330
2
100
AcDbSymbolTableRecord
100
AcDbLayerTableRecord
  2
BALON
 70
     0
 62
     5
  6
Continuous
370
    -3
390
F
  0
LAYER
  5
7A
330
2
100
AcDbSymbolTableRecord
100
AcDbLayerTableRecord
  2
VURGU
 70
     0
 62
     7
  6
Continuous
370
    -3
390
F
  0
LAYER
  5
7B
330
2
100
AcDbSymbolTableRecord
100
AcDbLayerTableRecord
  2
SILIK
 70
     0
 62
     7
  6
Continuous
370
    -3
390
F
  0
LAYER
  5
7C
330
2
100
AcDbSymbolTableRecord
100
AcDbLayerTableRecord
  2
MODEL
 70
     0
 62
     7
  6
Continuous
370
    -3
390
F
  0
LAYER
  5
7D
330
2
100
AcDbSymbolTableRecord
100
AcDbLayerTableRecord
  2
DETAYLANDıRMA
 70
     0
 62
   190
  6
Continuous
370
    -3
390
F
  0
LAYER
  5
7E
330
2
100
AcDbSymbolTableRecord
100
AcDbLayerTableRecord
  2
TOLERANS
 70
     0
 62
   230
  6
Continuous
370
    -3
390
F
  0
LAYER
  5
7F
330
2
100
AcDbSymbolTableRecord
100
AcDbLayerTableRecord
  2
MERKEZ_CIZGILERI
 70
     0
 62
    30
  6
Continuous
370
    -3
390
F
  0
LAYER
  5
80
330
2
100
AcDbSymbolTableRecord
100
AcDbLayerTableRecord
  2
KESIT-DETAY_CIZGILERI
 70
     0
 62
     7
  6
Continuous
370
    -3
390
F
  0
LAYER
  5
81
330
2
100
AcDbSymbolTableRecord
100
AcDbLayerTableRecord
  2
\U+041E\U+0421\U+0415\U+0412\U+042B\U+0415
 70
     0
 62
     7
  6
Continuous
370
    -3
390
F
  0
LAYER
  5
82
330
2
100
AcDbSymbolTableRecord
100
AcDbLayerTableRecord
  2
\U+0412\U+041E\U+0414\U+042F\U+041D\U+042B\U+0415_\U+0417\U+041D\U+0410\U+041A\U+0418
 70
     0
 62
    11
  6
Continuous
370
    -3
390
F
  0
ENDTAB
  0
TABLE
  2
STYLE
  5
3
330
0
100
AcDbSymbolTable
 70
     1
  0
STYLE
  5
11
330
3
100
AcDbSymbolTableRecord
100
AcDbTextStyleTableRecord
  2
Standard
 70
     0
 40
0.0
 41
1.0
 50
0.0
 71
     0
 42
3.5
  3
txt
  4

  0
ENDTAB
  0
TABLE
  2
VIEW
  5
6
330
0
100
AcDbSymbolTable
 70
     0
  0
ENDTAB
  0
TABLE
  2
UCS
  5
7
330
0
100
AcDbSymbolTable
 70
     0
  0
ENDTAB
  0
TABLE
  2
APPID
  5
9
330
0
100
AcDbSymbolTable
 70
     1
  0
APPID
  5
12
330
9
100
AcDbSymbolTableRecord
100
AcDbRegAppTableRecord
  2
ACAD
 70
     0
  0
ENDTAB
  0
TABLE
  2
DIMSTYLE
  5
A
330
0
100
AcDbSymbolTable
 70
     1
100
AcDbDimStyleTable
  0
DIMSTYLE
105
27
330
A
100
AcDbSymbolTableRecord
100
AcDbDimStyleTableRecord
  2
ISO-25
 70
     0
 41
2.5
 42
0.625
 43
3.75
 44
1.25
 73
     0
 74
     0
 77
     1
 78
     8
140
2.5
141
2.5
143
0.0393700787
147
0.625
171
     3
172
     1
178
     0
271
     2
272
     2
274
     3
278
    44
283
     0
284
     8
340
11
  0
ENDTAB
  0
TABLE
  2
BLOCK_RECORD
  5
1
330
0
100
AcDbSymbolTable
 70
     4
  0
BLOCK_RECORD
  5
1F
330
1
100
AcDbSymbolTableRecord
100
AcDbBlockTableRecord
  2
*Model_Space
340
22
  0
BLOCK_RECORD
  5
1B
330
1
100
AcDbSymbolTableRecord
100
AcDbBlockTableRecord
  2
*Paper_Space
340
1E
  0
BLOCK_RECORD
  5
23
330
1
100
AcDbSymbolTableRecord
100
AcDbBlockTableRecord
  2
*Paper_Space0
340
26
  0
BLOCK_RECORD
  5
8C
330
1
100
AcDbSymbolTableRecord
100
AcDbBlockTableRecord
  2
SW_CENTERMARKSYMBOL_0
340
0
102
{BLKREFS
331
97
102
}
  0
BLOCK_RECORD
  5
DE
330
1
100
AcDbSymbolTableRecord
100
AcDbBlockTableRecord
  2
SW_CENTERMARKSYMBOL_1
340
0
102
{BLKREFS
331
E9
102
}
  0
BLOCK_RECORD
  5
EA
330
1
100
AcDbSymbolTableRecord
100
AcDbBlockTableRecord
  2
SW_CENTERMARKSYMBOL_2
340
0
102
{BLKREFS
331
F5
102
}
  0
ENDTAB
  0
ENDSEC
  0
SECTION
  2
BLOCKS
  0
BLOCK
  5
20
330
1F
100
AcDbEntity
  8
0
100
AcDbBlockBegin
  2
*Model_Space
 70
     0
 10
0.0
 20
0.0
 30
0.0
  3
*Model_Space
  1

  0
ENDBLK
  5
21
330
1F
100
AcDbEntity
  8
0
100
AcDbBlockEnd
  0
BLOCK
  5
1C
330
1B
100
AcDbEntity
 67
     1
  8
0
100
AcDbBlockBegin
  2
*Paper_Space
 70
     0
 10
0.0
 20
0.0
 30
0.0
  3
*Paper_Space
  1

  0
ENDBLK
  5
1D
330
1B
100
AcDbEntity
 67
     1
  8
0
100
AcDbBlockEnd
  0
BLOCK
  5
24
330
23
100
AcDbEntity
  8
0
100
AcDbBlockBegin
  2
*Paper_Space0
 70
     0
 10
0.0
 20
0.0
 30
0.0
  3
*Paper_Space0
  1

  0
ENDBLK
  5
25
330
23
100
AcDbEntity
  8
0
100
AcDbBlockEnd
  0
BLOCK
  5
8D
330
8C
100
AcDbEntity
  8
0
100
AcDbBlockBegin
  2
SW_CENTERMARKSYMBOL_0
 70
     0
 10
0.0
 20
0.0
 30
0.0
  3
SW_CENTERMARKSYMBOL_0
  1

  0
LINE
  5
8F
330
8C
100
AcDbEntity
  8
FORMAT
 62
     0
100
AcDbLine
 10
0.0
 20
0.0
 30
0.0
 11
0.0
 21
2.5
 31
0.0
  0
LINE
  5
90
330
8C
100
AcDbEntity
  8
FORMAT
 62
     0
100
AcDbLine
 10
0.0
 20
0.0
 30
0.0
 11
-2.5
 21
0.0
 31
0.0
  0
LINE
  5
91
330
8C
100
AcDbEntity
  8
FORMAT
 62
     0
100
AcDbLine
 10
0.0
 20
0.0
 30
0.0
 11
0.0
 21
-2.5
 31
0.0
  0
LINE
  5
92
330
8C
100
AcDbEntity
  8
FORMAT
 62
     0
100
AcDbLine
 10
0.0
 20
0.0
 30
0.0
 11
2.5
 21
0.0
 31
0.0
  0
LINE
  5
93
330
8C
100
AcDbEntity
  8
FORMAT
 62
     0
100
AcDbLine
 10
0.0
 20
5.0
 30
0.0
 11
0.0
 21
160.7
 31
0.0
  0
LINE
  5
94
330
8C
100
AcDbEntity
  8
FORMAT
 62
     0
100
AcDbLine
 10
-5.0
 20
0.0
 30
0.0
 11
-160.7
 21
0.0
 31
0.0
  0
LINE
  5
95
330
8C
100
AcDbEntity
  8
FORMAT
 62
     0
100
AcDbLine
 10
0.0
 20
-5.0
 30
0.0
 11
0.0
 21
-160.7
 31
0.0
  0
LINE
  5
96
330
8C
100
AcDbEntity
  8
FORMAT
 62
     0
100
AcDbLine
 10
5.0
 20
0.0
 30
0.0
 11
160.7
 21
0.0
 31
0.0
  0
ENDBLK
  5
8E
330
8C
100
AcDbEntity
  8
0
100
AcDbBlockEnd
  0
BLOCK
  5
DF
330
DE
100
AcDbEntity
  8
0
100
AcDbBlockBegin
  2
SW_CENTERMARKSYMBOL_1
 70
     0
 10
0.0
 20
0.0
 30
0.0
  3
SW_CENTERMARKSYMBOL_1
  1

  0
LINE
  5
E1
330
DE
100
AcDbEntity
  8
FORMAT
 62
     0
100
AcDbLine
 10
0.0
 20
0.0
 30
0.0
 11
0.0
 21
2.5
 31
0.0
  0
LINE
  5
E2
330
DE
100
AcDbEntity
  8
FORMAT
 62
     0
100
AcDbLine
 10
0.0
 20
0.0
 30
0.0
 11
-2.5
 21
0.0
 31
0.0
  0
LINE
  5
E3
330
DE
100
AcDbEntity
  8
FORMAT
 62
     0
100
AcDbLine
 10
0.0
 20
0.0
 30
0.0
 11
0.0
 21
-2.5
 31
0.0
  0
LINE
  5
E4
330
DE
100
AcDbEntity
  8
FORMAT
 62
     0
100
AcDbLine
 10
0.0
 20
0.0
 30
0.0
 11
2.5
 21
0.0
 31
0.0
  0
LINE
  5
E5
330
DE
100
AcDbEntity
  8
FORMAT
 62
     0
100
AcDbLine
 10
0.0
 20
5.0
 30
0.0
 11
0.0
 21
9.5
 31
0.0
  0
LINE
  5
E6
330
DE
100
AcDbEntity
  8
FORMAT
 62
     0
100
AcDbLine
 10
-5.0
 20
0.0
 30
0.0
 11
-9.5
 21
0.0
 31
0.0
  0
LINE
  5
E7
330
DE
100
AcDbEntity
  8
FORMAT
 62
     0
100
AcDbLine
 10
0.0
 20
-5.0
 30
0.0
 11
0.0
 21
-9.5
 31
0.0
  0
LINE
  5
E8
330
DE
100
AcDbEntity
  8
FORMAT
 62
     0
100
AcDbLine
 10
5.0
 20
0.0
 30
0.0
 11
9.5
 21
0.0
 31
0.0
  0
ENDBLK
  5
E0
330
DE
100
AcDbEntity
  8
0
100
AcDbBlockEnd
  0
BLOCK
  5
EB
330
EA
100
AcDbEntity
  8
0
100
AcDbBlockBegin
  2
SW_CENTERMARKSYMBOL_2
 70
     0
 10
0.0
 20
0.0
 30
0.0
  3
SW_CENTERMARKSYMBOL_2
  1

  0
LINE
  5
ED
330
EA
100
AcDbEntity
  8
FORMAT
 62
     0
100
AcDbLine
 10
0.0
 20
0.0
 30
0.0
 11
0.0
 21
2.5
 31
0.0
  0
LINE
  5
EE
330
EA
100
AcDbEntity
  8
FORMAT
 62
     0
100
AcDbLine
 10
0.0
 20
0.0
 30
0.0
 11
-2.5
 21
0.0
 31
0.0
  0
LINE
  5
EF
330
EA
100
AcDbEntity
  8
FORMAT
 62
     0
100
AcDbLine
 10
0.0
 20
0.0
 30
0.0
 11
0.0
 21
-2.5
 31
0.0
  0
LINE
  5
F0
330
EA
100
AcDbEntity
  8
FORMAT
 62
     0
100
AcDbLine
 10
0.0
 20
0.0
 30
0.0
 11
2.5
 21
0.0
 31
0.0
  0
LINE
  5
F1
330
EA
100
AcDbEntity
  8
FORMAT
 62
     0
100
AcDbLine
 10
0.0
 20
5.0
 30
0.0
 11
0.0
 21
9.5
 31
0.0
  0
LINE
  5
F2
330
EA
100
AcDbEntity
  8
FORMAT
 62
     0
100
AcDbLine
 10
-5.0
 20
0.0
 30
0.0
 11
-9.5
 21
0.0
 31
0.0
  0
LINE
  5
F3
330
EA
100
AcDbEntity
  8
FORMAT
 62
     0
100
AcDbLine
 10
0.0
 20
-5.0
 30
0.0
 11
0.0
 21
-9.5
 31
0.0
  0
LINE
  5
F4
330
EA
100
AcDbEntity
  8
FORMAT
 62
     0
100
AcDbLine
 10
5.0
 20
0.0
 30
0.0
 11
9.5
 21
0.0
 31
0.0
  0
ENDBLK
  5
EC
330
EA
100
AcDbEntity
  8
0
100
AcDbBlockEnd
  0
ENDSEC
  0
SECTION
  2
ENTITIES
  0
LINE
  5
83
330
1F
100
AcDbEntity
  8
0
  6
Continuous
 62
     7
370
    25
100
AcDbLine
 10
137.6070913462
 20
277.4536904393
 30
0.0
 11
137.6070913462
 21
291.6949519231
 31
0.0
  0
LINE
  5
84
330
1F
100
AcDbEntity
  8
0
  6
Continuous
 62
     7
370
    25
100
AcDbLine
 10
123.6070913462
 20
291.6949519231
 30
0.0
 11
123.6070913462
 21
277.4543428257
 31
0.0
  0
CIRCLE
  5
85
330
1F
100
AcDbEntity
  8
0
  6
Continuous
 62
     7
370
    25
100
AcDbCircle
 10
130.6070913462
 20
95.8949519231
 30
0.0
 40
181.5
  0
ARC
  5
86
330
1F
100
AcDbEntity
  8
0
  6
Continuous
 62
     7
370
    25
100
AcDbCircle
 10
130.6070913462
 20
95.8949519231
 30
0.0
 40
182.4999999999993
100
AcDbArc
 50
92.1981855557
 51
180.0
  0
ARC
  5
87
330
1F
100
AcDbEntity
  8
0
  6
Continuous
 62
     7
370
    25
100
AcDbCircle
 10
130.6070913462
 20
95.8949519231
 30
0.0
 40
182.4999999999993
100
AcDbArc
 50
180.0
 51
87.8018144443
  0
SPLINE
  5
88
330
1F
100
AcDbEntity
  8
0
  6
Continuous
 62
     7
370
    25
100
AcDbSpline
210
0.0
220
0.0
230
1.0
 70
     8
 71
     3
 72
    14
 73
    10
 74
     0
 42
0.00000001
 43
0.00000001
 40
0.0
 40
0.0
 40
0.0
 40
0.0
 40
0.1561103405037676
 40
0.3122217884088617
 40
0.4683079220732719
 40
0.6244074602461361
 40
0.7805392998850397
 40
0.93663754702475
 40
1.0
 40
1.0
 40
1.0
 40
1.0
 10
134.5030062405136
 20
277.4539890089723
 30
0.0
 10
133.8060992967341
 20
277.4608827636129
 30
0.0
 10
132.41228046552
 20
277.4746703217965
 30
0.0
 10
129.9995547586506
 20
277.4793813418229
 30
0.0
 10
127.6903831589366
 20
277.4657774628963
 30
0.0
 10
125.6886100586304
 20
277.4420429225116
 30
0.0
 10
124.2913857434329
 20
277.4272630677134
 30
0.0
 10
123.5976769047497
 20
277.4290032304779
 30
0.0
 10
123.6792335783649
 20
277.4486658544313
 30
0.0
 10
123.7027805318471
 20
277.4543428256839
 30
0.0
  0
SPLINE
  5
89
330
1F
100
AcDbEntity
  8
0
  6
Continuous
 62
     7
370
    25
100
AcDbSpline
210
0.0
220
0.0
230
1.0
 70
     8
 71
     3
 72
    11
 73
     7
 74
     0
 42
0.00000001
 43
0.00000001
 40
0.0
 40
0.0
 40
0.0
 40
0.0
 40
0.0955425324575621
 40
0.4393762098596445
 40
0.7830990398194984
 40
1.0
 40
1.0
 40
1.0
 40
1.0
 10
137.5274313220445
 20
277.4536904393429
 30
0.0
 10
137.5507937120188
 20
277.4495529119097
 30
0.0
 10
137.6582315001551
 20
277.4305254581151
 30
0.0
 10
137.0459408777032
 20
277.4268720863234
 30
0.0
 10
135.919654412763
 20
277.4376125550983
 30
0.0
 10
134.8981992535618
 20
277.4494205774618
 30
0.0
 10
134.5030062405136
 20
277.4539890089723
 30
0.0
  0
CIRCLE
  5
8A
330
1F
100
AcDbEntity
  8
0
  6
Continuous
 62
     7
370
    25
100
AcDbCircle
 10
130.6070913462
 20
95.8949519231
 30
0.0
 40
158.2
  0
LINE
  5
8B
330
1F
100
AcDbEntity
  8
0
  6
Continuous
 62
     7
370
    25
100
AcDbLine
 10
137.6070913462
 20
291.6949519231
 30
0.0
 11
123.6070913462
 21
291.6949519231
 31
0.0
  0
INSERT
  5
97
330
1F
100
AcDbEntity
  8
FORMAT
 62
     7
100
AcDbBlockReference
  2
SW_CENTERMARKSYMBOL_0
 10
130.6070913462
 20
95.8949519231
 30
0.0
  0
LINE
  5
98
330
1F
100
AcDbEntity
  8
0
  6
Continuous
 62
     7
370
    25
100
AcDbLine
 10
478.5145334515
 20
277.477382264
 30
0.0
 11
473.4837422362
 21
277.3949519231
 31
0.0
  0
ARC
  5
99
330
1F
100
AcDbEntity
  8
0
  6
Continuous
 62
     7
370
    25
100
AcDbCircle
 10
592.9837422362
 20
-6862.230048077
 30
0.0
 40
7140.625000000054
100
AcDbArc
 50
90.0
 51
90.8069994102
  0
ARC
  5
9A
330
1F
100
AcDbEntity
  8
0
  6
Continuous
 62
     7
370
    25
100
AcDbCircle
 10
592.9837422362
 20
7054.0199519231
 30
0.0
 40
7140.625000000054
100
AcDbArc
 50
269.0410972024
 51
270.0
  0
LINE
  5
9B
330
1F
100
AcDbEntity
  8
0
  6
Continuous
 62
     7
370
    25
100
AcDbLine
 10
592.9837422362
 20
-86.6050480769
 30
0.0
 11
617.9837422362
 21
-86.6050480769
 31
0.0
  0
LINE
  5
9C
330
1F
100
AcDbEntity
  8
0
  6
Continuous
 62
     7
370
    25
100
AcDbLine
 10
617.9837422362
 20
278.3949519231
 30
0.0
 11
592.9837422362
 21
278.3949519231
 31
0.0
  0
ARC
  5
9D
330
1F
100
AcDbEntity
  8
0
  6
Continuous
 62
     7
370
    25
100
AcDbCircle
 10
617.9837422362
 20
-6862.230048077
 30
0.0
 40
7140.625000000054
100
AcDbArc
 50
89.1933776674
 51
90.0
  0
LINE
  5
9E
330
1F
100
AcDbEntity
  8
0
  6
Continuous
 62
     7
370
    25
100
AcDbLine
 10
737.4837422362
 20
277.3949519231
 30
0.0
 11
732.4090265979
 21
277.4780863585
 31
0.0
  0
ARC
  5
9F
330
1F
100
AcDbEntity
  8
0
  6
Continuous
 62
     7
370
    25
100
AcDbCircle
 10
617.9837422362
 20
7054.0199519231
 30
0.0
 40
7140.625000000054
100
AcDbArc
 50
270.0
 51
270.9589027976
  0
LINE
  5
A0
330
1F
100
AcDbEntity
  8
0
  6
Continuous
 62
     7
370
    25
100
AcDbLine
 10
492.4837422362
 20
277.6840098727
 30
0.0
 11
492.4837422362
 21
291.6949519231
 31
0.0
  0
LINE
  5
A1
330
1F
100
AcDbEntity
  8
0
  6
Continuous
 62
     7
370
    25
100
AcDbLine
 10
478.4837422362
 20
291.6949519231
 30
0.0
 11
478.4837422362
 21
277.4762383826
 31
0.0
  0
LINE
  5
A2
330
1F
100
AcDbEntity
  8
0
  6
Continuous
 62
     7
370
    25
100
AcDbLine
 10
732.4837422362
 20
277.4752510983
 30
0.0
 11
732.4837422362
 21
291.6949519231
 31
0.0
  0
LINE
  5
A3
330
1F
100
AcDbEntity
  8
0
  6
Continuous
 62
     7
370
    25
100
AcDbLine
 10
718.4837422362
 20
291.6949519231
 30
0.0
 11
718.4837422362
 21
277.6864800094
 31
0.0
  0
LINE
  5
A4
330
1F
100
AcDbEntity
  8
0
  6
Continuous
 62
     7
370
    25
100
AcDbLine
 10
473.4837422362
 20
95.8949519231
 30
0.0
 11
473.4837422362
 21
277.3949519231
 31
0.0
  0
LINE
  5
A5
330
1F
100
AcDbEntity
  8
0
  6
Continuous
 62
     7
370
    25
100
AcDbLine
 10
473.4837422362
 20
-85.6050480769
 30
0.0
 11
473.4837422362
 21
95.8949519231
 31
0.0
  0
SPLINE
  5
A6
330
1F
100
AcDbEntity
  8
0
  6
Continuous
 62
     7
370
    25
100
AcDbSpline
210
0.0
220
0.0
230
1.0
 70
     8
 71
     3
 72
    18
 73
    14
 74
     0
 42
0.00000001
 43
0.00000001
 40
0.0
 40
0.0
 40
0.0
 40
0.0
 40
0.0251139690980892
 40
0.132309831172485
 40
0.2395374480998131
 40
0.346894027928383
 40
0.4543187259667513
 40
0.5616853037574073
 40
0.6689657128969713
 40
0.7762388310415895
 40
0.8835599612562872
 40
0.9908976859818504
 40
0.9999999999999999
 40
0.9999999999999999
 40
0.9999999999999999
 40
0.9999999999999999
 10
492.4127099909456
 20
277.6839784258838
 30
0.0
 10
492.4344550805384
 20
277.6851104834201
 30
0.0
 10
492.5490163878972
 20
277.6910745881347
 30
0.0
 10
491.9705621803641
 20
277.6605608934883
 30
0.0
 10
490.7033837411489
 20
277.6002819134613
 30
0.0
 10
488.7834357657441
 20
277.5256537870675
 30
0.0
 10
486.5078136224928
 20
277.4640029982418
 30
0.0
 10
484.1104407132634
 20
277.4302245563948
 30
0.0
 10
481.8760251311655
 20
277.4275129004321
 30
0.0
 10
480.0258987463629
 20
277.4465481324766
 30
0.0
 10
478.8733444496622
 20
277.4678904818672
 30
0.0
 10
478.3751119109721
 20
277.4792428463558
 30
0.0
 10
478.5043288880968
 20
277.4764417309468
 30
0.0
 10
478.514429996916
 20
277.4762227630357
 30
0.0
  0
LINE
  5
A7
330
1F
100
AcDbEntity
  8
0
  6
Continuous
 62
     7
370
    25
100
AcDbLine
 10
737.4837422362
 20
95.8949519231
 30
0.0
 11
737.4837422362
 21
277.3949519231
 31
0.0
  0
LINE
  5
A8
330
1F
100
AcDbEntity
  8
0
  6
Continuous
 62
     7
370
    25
100
AcDbLine
 10
737.4837422362
 20
-85.6050480769
 30
0.0
 11
737.4837422362
 21
95.8949519231
 31
0.0
  0
SPLINE
  5
A9
330
1F
100
AcDbEntity
  8
0
  6
Continuous
 62
     7
370
    25
100
AcDbSpline
210
0.0
220
0.0
230
1.0
 70
     8
 71
     3
 72
    18
 73
    14
 74
     0
 42
0.00000001
 43
0.00000001
 40
0.0
 40
0.0
 40
0.0
 40
0.0
 40
0.0270614322729671
 40
0.13437458217815
 40
0.2416969480206579
 40
0.3490415219349902
 40
0.4563630001596736
 40
0.5636379518818927
 40
0.6709308673542205
 40
0.7783140193019202
 40
0.8857436419290889
 40
0.9930913485131541
 40
0.9999999999999999
 40
0.9999999999999999
 40
0.9999999999999999
 40
0.9999999999999999
 10
732.4089458913824
 20
277.4752394254976
 30
0.0
 10
732.4315164950057
 20
277.4757363912284
 30
0.0
 10
732.5435916948986
 20
277.478204093668
 30
0.0
 10
731.95313879556
 20
277.4648284135386
 30
0.0
 10
730.6699442236887
 20
277.4425742741204
 30
0.0
 10
728.7396452026779
 20
277.4260868206898
 30
0.0
 10
726.459702356082
 20
277.4336044039724
 30
0.0
 10
724.064427793634
 20
277.4726708544991
 30
0.0
 10
721.8365066697814
 20
277.5376101462785
 30
0.0
 10
719.995282449578
 20
277.6123447889521
 30
0.0
 10
718.8582969717603
 20
277.6677549456291
 30
0.0
 10
718.369638033745
 20
277.6935771712896
 30
0.0
 10
718.4996556484094
 20
277.6868553297734
 30
0.0
 10
718.5075173236986
 20
277.6864488853429
 30
0.0
  0
LINE
  5
AA
330
1F
100
AcDbEntity
  8
0
  6
Continuous
 62
     7
370
    25
100
AcDbLine
 10
492.4837422362
 20
291.6949519231
 30
0.0
 11
478.4837422362
 21
291.6949519231
 31
0.0
  0
LINE
  5
AB
330
1F
100
AcDbEntity
  8
0
  6
Continuous
 62
     7
370
    25
100
AcDbLine
 10
732.4837422362
 20
291.6949519231
 30
0.0
 11
718.4837422362
 21
291.6949519231
 31
0.0
  0
LINE
  5
AC
330
1F
100
AcDbEntity
  8
0
  6
Continuous
 62
     1
370
    25
100
AcDbLine
 10
592.9837422362
 20
95.8949519231
 30
0.0
 11
592.9837422362
 21
278.3949519231
 31
0.0
  0
LINE
  5
AD
330
1F
100
AcDbEntity
  8
0
  6
Continuous
 62
     1
370
    25
100
AcDbLine
 10
592.9837422362
 20
-86.6050480769
 30
0.0
 11
592.9837422362
 21
95.8949519231
 31
0.0
  0
LINE
  5
AE
330
1F
100
AcDbEntity
  8
0
  6
Continuous
 62
     1
370
    25
100
AcDbLine
 10
617.9837422362
 20
95.8949519231
 30
0.0
 11
617.9837422362
 21
278.3949519231
 31
0.0
  0
LINE
  5
AF
330
1F
100
AcDbEntity
  8
0
  6
Continuous
 62
     1
370
    25
100
AcDbLine
 10
617.9837422362
 20
-86.6050480769
 30
0.0
 11
617.9837422362
 21
95.8949519231
 31
0.0
  0
ARC
  5
B0
330
1F
100
AcDbEntity
  8
0
  6
Continuous
 62
     7
370
    25
100
AcDbCircle
 10
7088.7320913462
 20
523.9494214497
 30
0.0
 40
7140.625000000054
100
AcDbArc
 50
180.0
 51
180.9589027976
  0
ARC
  5
B1
330
1F
100
AcDbEntity
  8
0
  6
Continuous
 62
     7
370
    25
100
AcDbCircle
 10
-6827.5179086539
 20
523.9494214497
 30
0.0
 40
7140.625000000054
100
AcDbArc
 50
359.0410972024
 51
0.0
  0
LINE
  5
B2
330
1F
100
AcDbEntity
  8
0
  6
Continuous
 62
     7
370
    25
100
AcDbLine
 10
313.1070913462
 20
523.9494214497
 30
0.0
 11
313.1070913462
 21
548.9494214497
 31
0.0
  0
LINE
  5
B3
330
1F
100
AcDbEntity
  8
0
  6
Continuous
 62
     7
370
    25
100
AcDbLine
 10
-51.8929086538
 20
548.9494214497
 30
0.0
 11
-51.8929086538
 21
523.9494214497
 31
0.0
  0
ARC
  5
B4
330
1F
100
AcDbEntity
  8
0
  6
Continuous
 62
     7
370
    25
100
AcDbCircle
 10
7088.7320913462
 20
548.9494214497
 30
0.0
 40
7140.625000000054
100
AcDbArc
 50
179.0410972024
 51
180.0
  0
ARC
  5
B5
330
1F
100
AcDbEntity
  8
0
  6
Continuous
 62
     7
370
    25
100
AcDbCircle
 10
-6827.5179086539
 20
548.9494214497
 30
0.0
 40
7140.625000000054
100
AcDbArc
 50
0.0
 51
0.9589027976
  0
LINE
  5
B6
330
1F
100
AcDbEntity
  8
0
  6
Continuous
 62
     7
370
    25
100
AcDbLine
 10
312.1070913462
 20
404.4494214497
 30
0.0
 11
-50.8929086538
 21
404.4494214497
 31
0.0
  0
LINE
  5
B7
330
1F
100
AcDbEntity
  8
0
  6
Continuous
 62
     7
370
    25
100
AcDbLine
 10
312.1070913462
 20
668.4494214497
 30
0.0
 11
-50.8929086538
 21
668.4494214497
 31
0.0
  0
LINE
  5
B8
330
1F
100
AcDbEntity
  8
0
  6
Continuous
 62
     1
370
    25
100
AcDbLine
 10
313.1070913462
 20
523.9494214497
 30
0.0
 11
-51.8929086538
 21
523.9494214497
 31
0.0
  0
LINE
  5
B9
330
1F
100
AcDbEntity
  8
0
  6
Continuous
 62
     1
370
    25
100
AcDbLine
 10
313.1070913462
 20
548.9494214497
 30
0.0
 11
-51.8929086538
 21
548.9494214497
 31
0.0
  0
ARC
  5
BA
330
1F
100
AcDbEntity
  8
0
  6
Continuous
 62
     7
370
    25
100
AcDbCircle
 10
-362.9589739442
 20
7054.0199519231
 30
0.0
 40
7140.625000000054
100
AcDbArc
 50
270.0
 51
270.9589027976
  0
ARC
  5
BB
330
1F
100
AcDbEntity
  8
0
  6
Continuous
 62
     7
370
    25
100
AcDbCircle
 10
-362.9589739442
 20
-6862.230048077
 30
0.0
 40
7140.625000000055
100
AcDbArc
 50
89.1929982586
 51
90.0
  0
LINE
  5
BC
330
1F
100
AcDbEntity
  8
0
  6
Continuous
 62
     7
370
    25
100
AcDbLine
 10
-243.4589739442
 20
277.3949519231
 30
0.0
 11
-248.4894897422
 21
277.4773778483
 31
0.0
  0
LINE
  5
BD
330
1F
100
AcDbEntity
  8
0
  6
Continuous
 62
     7
370
    25
100
AcDbLine
 10
-362.9589739442
 20
278.3949519231
 30
0.0
 11
-387.9589739442
 21
278.3949519231
 31
0.0
  0
LINE
  5
BE
330
1F
100
AcDbEntity
  8
0
  6
Continuous
 62
     7
370
    25
100
AcDbLine
 10
-387.9589739442
 20
-86.6050480769
 30
0.0
 11
-362.9589739442
 21
-86.6050480769
 31
0.0
  0
ARC
  5
BF
330
1F
100
AcDbEntity
  8
0
  6
Continuous
 62
     7
370
    25
100
AcDbCircle
 10
-387.9589739442
 20
7054.0199519231
 30
0.0
 40
7140.625000000054
100
AcDbArc
 50
269.0410972024
 51
270.0
  0
LINE
  5
C0
330
1F
100
AcDbEntity
  8
0
  6
Continuous
 62
     7
370
    25
100
AcDbLine
 10
-502.3840667015
 20
277.4780894293
 30
0.0
 11
-507.4589739442
 21
277.3949519231
 31
0.0
  0
ARC
  5
C1
330
1F
100
AcDbEntity
  8
0
  6
Continuous
 62
     7
370
    25
100
AcDbCircle
 10
-387.9589739442
 20
-6862.230048077
 30
0.0
 40
7140.625000000054
100
AcDbArc
 50
90.0
 51
90.806619788
  0
LINE
  5
C2
330
1F
100
AcDbEntity
  8
0
  6
Continuous
 62
     7
370
    25
100
AcDbLine
 10
-248.4589739442
 20
277.4762383826
 30
0.0
 11
-248.4589739442
 21
291.6949519231
 31
0.0
  0
LINE
  5
C3
330
1F
100
AcDbEntity
  8
0
  6
Continuous
 62
     7
370
    25
100
AcDbLine
 10
-262.4589739442
 20
291.6949519231
 30
0.0
 11
-262.4589739442
 21
277.6840098727
 31
0.0
  0
LINE
  5
C4
330
1F
100
AcDbEntity
  8
0
  6
Continuous
 62
     7
370
    25
100
AcDbLine
 10
-488.4589739442
 20
277.6864800094
 30
0.0
 11
-488.4589739442
 21
291.6949519231
 31
0.0
  0
LINE
  5
C5
330
1F
100
AcDbEntity
  8
0
  6
Continuous
 62
     7
370
    25
100
AcDbLine
 10
-502.4589739442
 20
291.6949519231
 30
0.0
 11
-502.4589739442
 21
277.4752510983
 31
0.0
  0
LINE
  5
C6
330
1F
100
AcDbEntity
  8
0
  6
Continuous
 62
     7
370
    25
100
AcDbLine
 10
-243.4589739442
 20
277.3949519231
 30
0.0
 11
-243.4589739442
 21
-85.6050480769
 31
0.0
  0
SPLINE
  5
C7
330
1F
100
AcDbEntity
  8
0
  6
Continuous
 62
     7
370
    25
100
AcDbSpline
210
0.0
220
0.0
230
1.0
 70
     8
 71
     3
 72
     9
 73
     5
 74
     0
 42
0.00000001
 43
0.00000001
 40
0.0
 40
0.0
 40
0.0
 40
0.0
 40
0.5662904563930488
 40
1.0
 40
1.0
 40
1.0
 40
1.0
 10
-261.2521518196332
 20
277.6281169972364
 30
0.0
 10
-261.6485582487869
 20
277.6473705146212
 30
0.0
 10
-262.3485637401005
 20
277.6813698822028
 30
0.0
 10
-262.3760254998351
 20
277.6831891099058
 30
0.0
 10
-262.3879359271162
 20
277.6839781263226
 30
0.0
  0
SPLINE
  5
C8
330
1F
100
AcDbEntity
  8
0
  6
Continuous
 62
     7
370
    25
100
AcDbSpline
210
0.0
220
0.0
230
1.0
 70
     8
 71
     3
 72
    15
 73
    11
 74
     0
 42
0.00000001
 43
0.00000001
 40
0.0
 40
0.0
 40
0.0
 40
0.0
 40
0.121285186637101
 40
0.2537583034541068
 40
0.3862623977634126
 40
0.5187606147415432
 40
0.6511998860392333
 40
0.7836251607559644
 40
0.9161424996223538
 40
1.0
 40
1.0
 40
1.0
 40
1.0
 10
-248.489553718624
 20
277.4762250971361
 30
0.0
 10
-248.5421864863932
 20
277.4749728585637
 30
0.0
 10
-248.6523071221074
 20
277.4723528688973
 30
0.0
 10
-249.7765036053007
 20
277.4499793540639
 30
0.0
 10
-251.5051837772051
 20
277.4297047166403
 30
0.0
 10
-253.6972377904779
 20
277.4277115069665
 30
0.0
 10
-256.0849757910121
 20
277.4562059109728
 30
0.0
 10
-258.3927822205737
 20
277.5138315387173
 30
0.0
 10
-260.1614838316519
 20
277.5791128274936
 30
0.0
 10
-260.947518776673
 20
277.6144297069602
 30
0.0
 10
-261.2521518196332
 20
277.6281169972364
 30
0.0
  0
LINE
  5
C9
330
1F
100
AcDbEntity
  8
0
  6
Continuous
 62
     7
370
    25
100
AcDbLine
 10
-507.4589739442
 20
277.3949519231
 30
0.0
 11
-507.4589739442
 21
-85.6050480769
 31
0.0
  0
SPLINE
  5
CA
330
1F
100
AcDbEntity
  8
0
  6
Continuous
 62
     7
370
    25
100
AcDbSpline
210
0.0
220
0.0
230
1.0
 70
     8
 71
     3
 72
     9
 73
     5
 74
     0
 42
0.00000001
 43
0.00000001
 40
0.0
 40
0.0
 40
0.0
 40
0.0
 40
0.5721874004790882
 40
1.0
 40
1.0
 40
1.0
 40
1.0
 10
-501.2746292930333
 20
277.4539890089723
 30
0.0
 10
-501.6680420768136
 20
277.4613020010693
 30
0.0
 10
-502.3556014034448
 20
277.4740827650128
 30
0.0
 10
-502.3755884424168
 20
277.4748922692887
 30
0.0
 10
-502.3841391495163
 20
277.4752385854173
 30
0.0
  0
SPLINE
  5
CB
330
1F
100
AcDbEntity
  8
0
  6
Continuous
 62
     7
370
    25
100
AcDbSpline
210
0.0
220
0.0
230
1.0
 70
     8
 71
     3
 72
    15
 73
    11
 74
     0
 42
0.00000001
 43
0.00000001
 40
0.0
 40
0.0
 40
0.0
 40
0.0
 40
0.1235536490915376
 40
0.2555927162255091
 40
0.3877736630582935
 40
0.5200786648978585
 40
0.6523526148108271
 40
0.7845123715472079
 40
0.9166295217212806
 40
1.0
 40
1.0
 40
1.0
 40
1.0
 10
-488.4827328213768
 20
277.6864497226407
 30
0.0
 10
-488.5408952361022
 20
277.6833207505154
 30
0.0
 10
-488.6612145441211
 20
277.6768479147036
 30
0.0
 10
-489.8027747770042
 20
277.6199226126226
 30
0.0
 10
-491.5408874417629
 20
277.5475120437404
 30
0.0
 10
-493.7388271943449
 20
277.4797677873107
 30
0.0
 10
-496.1293205678114
 20
277.4368233449064
 30
0.0
 10
-498.4343723290714
 20
277.4254819365525
 30
0.0
 10
-500.1944947210628
 20
277.4378152977603
 30
0.0
 10
-500.9733112633656
 20
277.4494771352473
 30
0.0
 10
-501.2746292930333
 20
277.4539890089723
 30
0.0
  0
LINE
  5
CC
330
1F
100
AcDbEntity
  8
0
  6
Continuous
 62
     7
370
    25
100
AcDbLine
 10
-248.4589739442
 20
291.6949519231
 30
0.0
 11
-262.4589739442
 21
291.6949519231
 31
0.0
  0
LINE
  5
CD
330
1F
100
AcDbEntity
  8
0
  6
Continuous
 62
     7
370
    25
100
AcDbLine
 10
-488.4589739442
 20
291.6949519231
 30
0.0
 11
-502.4589739442
 21
291.6949519231
 31
0.0
  0
LINE
  5
CE
330
1F
100
AcDbEntity
  8
0
  6
Continuous
 62
     1
370
    25
100
AcDbLine
 10
-362.9589739442
 20
278.3949519231
 30
0.0
 11
-362.9589739442
 21
-86.6050480769
 31
0.0
  0
LINE
  5
CF
330
1F
100
AcDbEntity
  8
0
  6
Continuous
 62
     1
370
    25
100
AcDbLine
 10
-387.9589739442
 20
278.3949519231
 30
0.0
 11
-387.9589739442
 21
-86.6050480769
 31
0.0
  0
ARC
  5
D0
330
1F
100
AcDbEntity
  8
0
  6
Continuous
 62
     7
370
    25
100
AcDbCircle
 10
-6827.5179086539
 20
-376.7155269352
 30
0.0
 40
7140.625000000054
100
AcDbArc
 50
0.0
 51
0.9589027976
  0
ARC
  5
D1
330
1F
100
AcDbEntity
  8
0
  6
Continuous
 62
     7
370
    25
100
AcDbCircle
 10
7088.7320913462
 20
-376.7155269352
 30
0.0
 40
7140.625000000054
100
AcDbArc
 50
179.0410972024
 51
180.0
  0
LINE
  5
D2
330
1F
100
AcDbEntity
  8
0
  6
Continuous
 62
     7
370
    25
100
AcDbLine
 10
-51.8929086538
 20
-376.7155269352
 30
0.0
 11
-51.8929086538
 21
-401.7155269352
 31
0.0
  0
LINE
  5
D3
330
1F
100
AcDbEntity
  8
0
  6
Continuous
 62
     7
370
    25
100
AcDbLine
 10
313.1070913462
 20
-401.7155269352
 30
0.0
 11
313.1070913462
 21
-376.7155269352
 31
0.0
  0
ARC
  5
D4
330
1F
100
AcDbEntity
  8
0
  6
Continuous
 62
     7
370
    25
100
AcDbCircle
 10
-6827.5179086539
 20
-401.7155269352
 30
0.0
 40
7140.625000000054
100
AcDbArc
 50
359.0410972024
 51
0.0
  0
ARC
  5
D5
330
1F
100
AcDbEntity
  8
0
  6
Continuous
 62
     7
370
    25
100
AcDbCircle
 10
7088.7320913462
 20
-401.7155269352
 30
0.0
 40
7140.625000000054
100
AcDbArc
 50
180.0
 51
180.9589027976
  0
CIRCLE
  5
D6
330
1F
100
AcDbEntity
  8
0
  6
Continuous
 62
     7
370
    25
100
AcDbCircle
 10
130.6070913462
 20
-269.2155269352
 30
0.0
 40
7.0
  0
CIRCLE
  5
D7
330
1F
100
AcDbEntity
  8
0
  6
Continuous
 62
     7
370
    25
100
AcDbCircle
 10
130.6070913462
 20
-269.2155269352
 30
0.0
 40
5.0
  0
CIRCLE
  5
D8
330
1F
100
AcDbEntity
  8
0
  6
Continuous
 62
     7
370
    25
100
AcDbCircle
 10
130.6070913462
 20
-509.2155269352
 30
0.0
 40
7.0
  0
CIRCLE
  5
D9
330
1F
100
AcDbEntity
  8
0
  6
Continuous
 62
     7
370
    25
100
AcDbCircle
 10
130.6070913462
 20
-509.2155269352
 30
0.0
 40
5.0
  0
LINE
  5
DA
330
1F
100
AcDbEntity
  8
0
  6
Continuous
 62
     7
370
    25
100
AcDbLine
 10
-50.8929086538
 20
-257.2155269352
 30
0.0
 11
312.1070913462
 21
-257.2155269352
 31
0.0
  0
LINE
  5
DB
330
1F
100
AcDbEntity
  8
0
  6
Continuous
 62
     7
370
    25
100
AcDbLine
 10
-50.8929086538
 20
-521.2155269352
 30
0.0
 11
312.1070913462
 21
-521.2155269352
 31
0.0
  0
LINE
  5
DC
330
1F
100
AcDbEntity
  8
0
  6
Continuous
 62
     1
370
    25
100
AcDbLine
 10
-51.8929086538
 20
-376.7155269352
 30
0.0
 11
313.1070913462
 21
-376.7155269352
 31
0.0
  0
LINE
  5
DD
330
1F
100
AcDbEntity
  8
0
  6
Continuous
 62
     1
370
    25
100
AcDbLine
 10
-51.8929086538
 20
-401.7155269352
 30
0.0
 11
313.1070913462
 21
-401.7155269352
 31
0.0
  0
INSERT
  5
E9
330
1F
100
AcDbEntity
  8
FORMAT
 62
     7
100
AcDbBlockReference
  2
SW_CENTERMARKSYMBOL_1
 10
130.6070913462
 20
-269.2155269352
 30
0.0
  0
INSERT
  5
F5
330
1F
100
AcDbEntity
  8
FORMAT
 62
     7
100
AcDbBlockReference
  2
SW_CENTERMARKSYMBOL_2
 10
130.6070913462
 20
-509.2155269352
 30
0.0
  0
SPLINE
  5
F6
330
1F
100
AcDbEntity
  8
0
  6
Continuous
 62
     7
370
    25
100
AcDbSpline
210
0.0
220
0.0
230
1.0
 70
     8
 71
     3
 72
    11
 73
     7
 74
     0
 42
0.00000001
 43
0.00000001
 40
0.0
 40
0.0
 40
0.0
 40
0.0
 40
0.1021034612340393
 40
0.4969798110143637
 40
0.8918086540651563
 40
1.0
 40
1.0
 40
1.0
 40
1.0
 10
559.3976105507859
 20
-285.21421681757
 30
0.0
 10
556.4802065390053
 20
-286.8877902516527
 30
0.0
 10
542.2799935696933
 20
-295.0337649222132
 30
0.0
 10
516.9656808394827
 20
-309.9396211536351
 30
0.0
 10
491.5269774133762
 20
-325.0279348459867
 30
0.0
 10
477.3745903970869
 20
-333.6405594851151
 30
0.0
 10
474.3306453765683
 20
-335.4929929900565
 30
0.0
  0
SPLINE
  5
F7
330
1F
100
AcDbEntity
  8
0
  6
Continuous
 62
     7
370
    25
100
AcDbSpline
210
0.0
220
0.0
230
1.0
 70
     8
 71
     3
 72
    10
 73
     6
 74
     0
 42
0.00000001
 43
0.00000001
 40
0.0
 40
0.0
 40
0.0
 40
0.0
 40
0.3122633373838781
 40
0.7071944521832513
 40
1.0
 40
1.0
 40
1.0
 40
1.0
 10
655.774502498524
 20
-649.7967828543669
 30
0.0
 10
664.7804157080262
 20
-644.8297041901207
 30
0.0
 10
685.1764439832706
 20
-633.5805754760622
 30
0.0
 10
713.8698246034219
 20
-617.4011269200392
 30
0.0
 10
733.496411568749
 20
-606.0867430803816
 30
0.0
 10
741.8524784480328
 20
-601.2696167899526
 30
0.0
  0
LINE
  5
F8
330
1F
100
AcDbEntity
  8
0
  6
Continuous
 62
     7
370
    25
100
AcDbLine
 10
577.0601880026
 20
-274.9828645021
 30
0.0
 11
559.3825184729
 21
-285.1879658999
 31
0.0
  0
LINE
  5
F9
330
1F
100
AcDbEntity
  8
0
  6
Continuous
 62
     7
370
    25
100
AcDbLine
 10
741.867687179
 20
-601.2958006689
 30
0.0
 11
759.5453567087
 21
-591.0906992711
 31
0.0
  0
SPLINE
  5
FA
330
1F
100
AcDbEntity
  8
0
  6
Continuous
 62
     7
370
    25
100
AcDbSpline
210
0.0
220
0.0
230
1.0
 70
     8
 71
     3
 72
    10
 73
     6
 74
     0
 42
0.00000001
 43
0.00000001
 40
0.0
 40
0.0
 40
0.0
 40
0.0
 40
0.3122590786135686
 40
0.7071918571627696
 40
1.0
 40
1.0
 40
1.0
 40
1.0
 10
663.1528907501572
 20
-226.4821489909984
 30
0.0
 10
654.1471383643408
 20
-231.4491390961769
 30
0.0
 10
633.7512709866778
 20
-242.6981793885722
 30
0.0
 10
605.0580116287496
 20
-258.8775604882453
 30
0.0
 10
585.4313858125556
 20
-270.1919667294032
 30
0.0
 10
577.0752800804497
 20
-275.0091154197861
 30
0.0
  0
SPLINE
  5
FB
330
1F
100
AcDbEntity
  8
0
  6
Continuous
 62
     7
370
    25
100
AcDbSpline
210
0.0
220
0.0
230
1.0
 70
     8
 71
     3
 72
    11
 73
     7
 74
     0
 42
0.00000001
 43
0.00000001
 40
0.0
 40
0.0
 40
0.0
 40
0.0
 40
0.1021036921707971
 40
0.496975669707753
 40
0.8918001410380428
 40
1.0
 40
1.0
 40
1.0
 40
1.0
 10
759.530147977699
 20
-591.0645153921674
 30
0.0
 10
762.4475909014732
 20
-589.390919659952
 30
0.0
 10
776.6478428223486
 20
-581.2449227605799
 30
0.0
 10
801.9621947586877
 20
-566.3390446962076
 30
0.0
 10
827.401171982198
 20
-551.2505656607033
 30
0.0
 10
841.5538317374443
 20
-542.6377739738365
 30
0.0
 10
844.5980498740988
 20
-540.7851740305172
 30
0.0
  0
LINE
  5
FC
330
1F
100
AcDbEntity
  8
0
  6
Continuous
 62
     7
370
    25
100
AcDbLine
 10
581.6111238484
 20
-338.7621269603
 30
0.0
 11
581.6111238484
 21
-327.2451283276
 31
0.0
  0
LINE
  5
FD
330
1F
100
AcDbEntity
  8
0
  6
Continuous
 62
     7
370
    25
100
AcDbLine
 10
567.6111238484
 20
-327.2451283276
 30
0.0
 11
567.6111238484
 21
-338.8828418539
 31
0.0
  0
LINE
  5
FE
330
1F
100
AcDbEntity
  8
0
  6
Continuous
 62
     7
370
    25
100
AcDbLine
 10
751.3167513332
 20
-240.913320191
 30
0.0
 11
751.3167513332
 21
-229.2761549089
 31
0.0
  0
LINE
  5
FF
330
1F
100
AcDbEntity
  8
0
  6
Continuous
 62
     7
370
    25
100
AcDbLine
 10
737.3167513332
 20
-229.2761549089
 30
0.0
 11
737.3167513332
 21
-240.7925593408
 31
0.0
  0
LWPOLYLINE
  5
100
330
1F
100
AcDbEntity
  8
0
  6
Continuous
 62
     7
370
    25
100
AcDbPolyline
 90
      144
 70
   128
 43
0.0
 10
437.7859616888
 20
-417.9332318179
 10
437.9098269225
 20
-411.4950731742
 10
438.2811835306
 20
-405.212353662
 10
438.8993146948
 20
-399.0972006189
 10
439.763027256
 20
-393.1614179338
 10
440.8706540167
 20
-387.4164632629
 10
442.2200569595
 20
-381.873425913
 10
443.8086313741
 20
-376.5430054362
 10
445.6333108848
 20
-371.4354909766
 10
447.6905733696
 20
-366.5607414102
 10
449.9764477591
 20
-361.928166314
 10
452.4865217012
 20
-357.546707803
 10
455.2159500784
 20
-353.42482327
 10
458.1594643603
 20
-349.57046906
 10
461.3113827733
 20
-345.9910851127
 10
464.6656212674
 20
-342.6935806014
 10
468.2157052608
 20
-339.684320596
 10
471.9547821372
 20
-336.9691137772
 10
475.875634473
 20
-334.553201224
 10
479.9706939694
 20
-332.4412462972
 10
484.2320560608
 20
-330.6373256373
 10
488.6514951729
 20
-329.1449212961
 10
493.2204806003
 20
-327.9669140152
 10
497.930192973
 20
-327.1055776653
 10
502.7715412801
 20
-326.562574857
 10
507.735180418
 20
-326.3389537317
 10
512.8115292291
 20
-326.4351459384
 10
517.9907889955
 20
-326.8509658001
 10
523.2629623537
 20
-327.5856106728
 10
528.6178725921
 20
-328.6376624945
 10
534.0451832944
 20
-330.0050905222
 10
539.5344182922
 20
-331.6852552524
 10
545.0749818864
 20
-333.6749135155
 10
550.6561792999
 20
-335.9702247362
 10
556.2672373216
 20
-338.5667583469
 10
561.8973251013
 20
-341.4595023398
 10
567.5355750561
 20
-344.6428729414
 10
573.171103848
 20
-348.1107253907
 10
578.7930333918
 20
-351.8563658005
 10
584.3905118521
 20
-355.8725640778
 10
589.9527345911
 20
-360.1515678804
 10
595.4689650236
 20
-364.6851175809
 10
600.9285553422
 20
-369.4644622097
 10
606.3209670701
 20
-374.4803763469
 10
611.6357914031
 20
-379.7231779301
 10
616.8627693017
 20
-385.1827469428
 10
621.9918112934
 20
-390.8485449494
 10
627.0130169487
 20
-396.7096354368
 10
631.9166939908
 20
-402.7547049249
 10
636.6933770051
 20
-408.9720848046
 10
641.3338457092
 20
-415.3497738617
 10
645.8291427513
 20
-421.8754614417
 10
650.1705909997
 20
-428.5365512138
 10
654.3498102924
 20
-435.320185484
 10
658.3587336127
 20
-442.2132700149
 10
662.189622661
 20
-449.2024993004
 10
665.8350827918
 20
-456.2743822493
 10
669.288077287
 20
-463.4152682266
 10
672.5419409392
 20
-470.6113734029
 10
675.5903929169
 20
-477.848807361
 10
678.4275488883
 20
-485.1135999078
 10
681.0479323798
 20
-492.3917280411
 10
683.4464853469
 20
-499.669143017
 10
685.6185779376
 20
-506.9317974687
 10
687.5600174294
 20
-514.1656725208
 10
689.2670563222
 20
-521.3568048499
 10
690.7363995721
 20
-528.4913136378
 10
691.9652109517
 20
-535.5554273647
 10
692.9511185247
 20
-542.5355103923
 10
693.6922192244
 20
-549.4180892842
 10
694.1870825274
 20
-556.189878813
 10
694.4347532143
 20
-562.8378076046
 10
694.4347532143
 20
-569.3490433697
 10
694.1870825274
 20
-575.7110176729
 10
693.6922192244
 20
-581.9114501938
 10
692.9511185247
 20
-587.9383724309
 10
691.9652109517
 20
-593.7801508043
 10
690.7363995721
 20
-599.4255091114
 10
689.2670563222
 20
-604.8635502933
 10
687.5600174294
 20
-610.0837774687
 10
685.6185779376
 20
-615.076114196
 10
683.4464853469
 20
-619.8309239233
 10
681.0479323798
 20
-624.33902859
 10
678.4275488883
 20
-628.591726342
 10
675.5903929169
 20
-632.5808083297
 10
672.5419409392
 20
-636.2985745526
 10
669.288077287
 20
-639.7378487225
 10
665.8350827918
 20
-642.8919921158
 10
662.189622661
 20
-645.7549163879
 10
658.3587336127
 20
-648.3210953255
 10
654.3498102924
 20
-650.5855755133
 10
650.1705909997
 20
-652.543985896
 10
645.8291427513
 20
-654.1925462151
 10
641.3338457092
 20
-655.5280743061
 10
636.6933770051
 20
-656.5479922407
 10
631.9166939908
 20
-657.2503313031
 10
627.0130169487
 20
-657.6337357903
 10
621.9918112934
 20
-657.6974656284
 10
616.8627693017
 20
-657.4413978018
 10
611.6357914031
 20
-656.8660265902
 10
606.3209670701
 20
-655.9724626146
 10
600.9285553422
 20
-654.7624306939
 10
595.4689650236
 20
-653.2382665147
 10
589.9527345911
 20
-651.4029121237
 10
584.3905118521
 20
-649.2599102482
 10
578.7930333918
 20
-646.8133974579
 10
573.171103848
 20
-644.06809618
 10
567.5355750561
 20
-641.0293055839
 10
561.8973251013
 20
-637.7028913524
 10
556.2672373216
 20
-634.095274359
 10
550.6561792999
 20
-630.2134182742
 10
545.0749818864
 20
-626.0648161238
 10
539.5344182922
 20
-621.657475825
 10
534.0451832944
 20
-616.9999047292
 10
528.6178725921
 20
-612.1010932007
 10
523.2629623537
 20
-606.9704972625
 10
517.9907889955
 20
-601.6180203438
 10
512.811529229
 20
-596.0539941638
 10
507.735180418
 20
-590.2891587887
 10
502.7715412801
 20
-584.3346419004
 10
497.930192973
 20
-578.2019373169
 10
493.2204806003
 20
-571.9028828065
 10
488.6514951729
 20
-565.4496372378
 10
484.2320560608
 20
-558.8546571091
 10
479.9706939694
 20
-552.130672505
 10
475.875634473
 20
-545.2906625231
 10
471.9547821372
 20
-538.3478302212
 10
468.2157052608
 20
-531.3155771319
 10
464.6656212674
 20
-524.2074773939
 10
461.3113827733
 20
-517.0372515504
 10
458.1594643603
 20
-509.8187400646
 10
455.2159500784
 20
-502.565876604
 10
452.4865217011
 20
-495.2926611446
 10
449.9764477591
 20
-488.0131329473
 10
447.6905733696
 20
-480.7413434582
 10
445.6333108848
 20
-473.4913291857
 10
443.8086313741
 20
-466.2770846061
 10
442.2200569595
 20
-459.1125351507
 10
440.8706540167
 20
-452.0115103258
 10
439.763027256
 20
-444.9877170179
 10
438.8993146948
 20
-438.0547130361
 10
438.2811835306
 20
-431.2258809418
 10
437.9098269225
 20
-424.5144022164
 10
437.7859616888
 20
-417.9332318179
  0
SPLINE
  5
101
330
1F
100
AcDbEntity
  8
0
  6
Continuous
 62
     7
370
    25
100
AcDbSpline
210
0.0
220
0.0
230
1.0
 70
     8
 71
     3
 72
    12
 73
     8
 74
     0
 42
0.00000001
 43
0.00000001
 40
0.0
 40
0.0
 40
0.0
 40
0.0
 40
0.2452585107824252
 40
0.4905187613573542
 40
0.7357392417738702
 40
0.9809807814601988
 40
1.0
 40
1.0
 40
1.0
 40
1.0
 10
573.253662354954
 20
-342.8377581100653
 30
0.0
 10
572.4977354435757
 20
-342.7002487602621
 30
0.0
 10
570.9858762584936
 20
-342.4252290852043
 30
0.0
 10
569.1468729833992
 20
-341.5028552611346
 30
0.0
 10
567.9963289015744
 20
-340.3324174341006
 30
0.0
 10
567.5011252636099
 20
-339.3978628570237
 30
0.0
 10
567.630124584888
 20
-338.9196029099288
 30
0.0
 10
567.6394088475206
 20
-338.8851818687053
 30
0.0
  0
SPLINE
  5
102
330
1F
100
AcDbEntity
  8
0
  6
Continuous
 62
     7
370
    25
100
AcDbSpline
210
0.0
220
0.0
230
1.0
 70
     8
 71
     3
 72
    13
 73
     9
 74
     0
 42
0.00000001
 43
0.00000001
 40
0.0
 40
0.0
 40
0.0
 40
0.0
 40
0.1157957038295848
 40
0.3068764267134761
 40
0.4979123030345128
 40
0.6887832565300521
 40
0.8795926757478829
 40
0.9999999999999999
 40
0.9999999999999999
 40
0.9999999999999999
 40
0.9999999999999999
 10
581.5164203854051
 20
-338.760170449745
 30
0.0
 10
581.525325417786
 20
-339.0476605676837
 30
0.0
 10
581.5489251233578
 20
-339.8095536016283
 30
0.0
 10
580.7020771113303
 20
-340.9759752225318
 30
0.0
 10
579.1657493234809
 20
-342.0609497283023
 30
0.0
 10
577.0857791347928
 20
-342.7553067562481
 30
0.0
 10
575.0154170831155
 20
-342.9860499008523
 30
0.0
 10
573.7451274716375
 20
-342.879126094551
 30
0.0
 10
573.2536623549539
 20
-342.8377581100653
 30
0.0
  0
LWPOLYLINE
  5
103
330
1F
100
AcDbEntity
  8
0
  6
Continuous
 62
     7
370
    25
100
AcDbPolyline
 90
      134
 70
   128
 43
0.0
 10
454.2615496904
 20
-427.4443863206
 10
454.3863561798
 20
-421.4161376231
 10
454.7604971558
 20
-415.545438811
 10
455.3831377635
 20
-409.8453897089
 10
456.2528886484
 20
-404.3287093552
 10
457.3678090561
 20
-399.007707621
 10
458.7254111633
 20
-393.8942577417
 10
460.3226656287
 20
-388.9997698235
 10
462.1560083531
 20
-384.3351653829
 10
464.221348432
 20
-379.9108529762
 10
466.5140772841
 20
-375.7367049744
 10
469.0290789349
 20
-371.8220355341
 10
471.7607414321
 20
-368.1755798133
 10
474.7029693687
 20
-364.8054744806
 10
477.8491974836
 20
-361.7192395589
 10
481.1924053116
 20
-358.923761645
 10
484.7251328489
 20
-356.4252785433
 10
488.4394971989
 20
-354.2293653465
 10
492.3272101623
 20
-352.3409219957
 10
496.3795967314
 20
-350.7641623462
 10
500.5876144471
 20
-349.5026047656
 10
504.9418735764
 20
-348.559064282
 10
509.4326580647
 20
-347.9356463032
 10
514.0499472158
 20
-347.6337419185
 10
518.783438052
 20
-347.6540247946
 10
523.6225683045
 20
-347.9964496725
 10
528.5565399814
 20
-348.6602524684
 10
533.5743434626
 20
-349.6439519787
 10
538.6647820665
 20
-350.9453531852
 10
543.816497034
 20
-352.5615521528
 10
549.0179928747
 20
-354.4889425097
 10
554.2576630174
 20
-356.7232234944
 10
559.5238157092
 20
-359.2594095523
 10
564.8047001043
 20
-362.0918414606
 10
570.0885324846
 20
-365.2141989563
 10
575.363522554
 20
-368.6195148387
 10
580.6178997469
 20
-372.3001905167
 10
585.8399394934
 20
-376.2480129635
 10
591.0179893808
 20
-380.4541730436
 10
596.140495155
 20
-384.9092851692
 10
601.1960265026
 20
-389.603408243
 10
606.1733025565
 20
-394.5260678409
 10
611.0612170674
 20
-399.6662795846
 10
615.8488631869
 20
-405.0125736516
 10
620.5255578043
 20
-410.5530203695
 10
625.0808653853
 20
-416.275256835
 10
629.5046212574
 20
-422.1665145012
 10
633.7869542915
 20
-428.2136476686
 10
637.9183089281
 20
-434.4031628185
 10
641.8894664995
 20
-440.7212487224
 10
645.6915658004
 20
-447.15380726
 10
649.3161228606
 20
-453.6864848781
 10
652.755049876
 20
-460.3047046184
 10
656.0006732556
 20
-466.9936986449
 10
659.0457507446
 20
-473.7385411962
 10
661.8834875845
 20
-480.5241818913
 10
664.5075516747
 20
-487.3354793125
 10
666.9120877022
 20
-494.1572347918
 10
669.0917302069
 20
-500.9742263253
 10
671.041615554
 20
-507.7712425392
 10
672.7573927869
 20
-514.5331166327
 10
674.2352333357
 20
-521.2447602205
 10
675.4718395603
 20
-527.8911970015
 10
676.4644521085
 20
-534.4575961762
 10
677.2108560738
 20
-540.9293055405
 10
677.7093859369
 20
-547.2918841802
 10
677.9589292829
 20
-553.5311346945
 10
677.9589292829
 20
-559.6331348757
 10
677.7093859369
 20
-565.5842687754
 10
677.2108560738
 20
-571.3712570869
 10
676.4644521085
 20
-576.9811867764
 10
675.4718395603
 20
-582.4015398972
 10
674.2352333357
 20
-587.6202215219
 10
672.7573927869
 20
-592.6255867313
 10
671.041615554
 20
-597.4064665983
 10
669.0917302069
 20
-601.9521931105
 10
666.9120877022
 20
-606.2526229746
 10
664.5075516747
 20
-610.29816025
 10
661.8834875845
 20
-614.0797777612
 10
659.0457507446
 20
-617.5890372407
 10
656.0006732556
 20
-620.8181081585
 10
652.755049876
 20
-623.7597851947
 10
649.3161228606
 20
-626.4075043176
 10
645.6915658004
 20
-628.7553574305
 10
641.8894664995
 20
-630.798105555
 10
637.9183089281
 20
-632.5311905214
 10
633.7869542915
 20
-633.9507451394
 10
629.5046212574
 20
-635.0536018275
 10
625.0808653853
 20
-635.8372996812
 10
620.5255578043
 20
-636.3000899642
 10
615.8488631869
 20
-636.4409400104
 10
611.0612170674
 20
-636.2595355283
 10
606.1733025565
 20
-635.7562813022
 10
601.1960265026
 20
-634.9323002891
 10
596.140495155
 20
-633.7894311127
 10
591.0179893808
 20
-632.3302239612
 10
585.8399394934
 20
-630.5579348962
 10
580.6178997469
 20
-628.4765185877
 10
575.363522554
 20
-626.0906194894
 10
570.0885324846
 20
-623.405561475
 10
564.8047001043
 20
-620.4273359589
 10
559.5238157092
 20
-617.1625885268
 10
554.2576630174
 20
-613.6186041068
 10
549.0179928747
 20
-609.803290714
 10
543.816497034
 20
-605.7251618043
 10
538.6647820665
 20
-601.393317278
 10
533.5743434626
 20
-596.8174231742
 10
528.5565399814
 20
-592.0076901018
 10
523.6225683045
 20
-586.974850456
 10
518.783438052
 20
-581.73013447
 10
514.0499472158
 20
-576.2852451561
 10
509.4326580647
 20
-570.6523321913
 10
504.9418735764
 20
-564.843964807
 10
500.5876144471
 20
-558.8731037422
 10
496.3795967314
 20
-552.7530723225
 10
492.3272101623
 20
-546.4975267312
 10
488.4394971989
 20
-540.1204255365
 10
484.7251328489
 20
-533.6359985448
 10
481.1924053116
 20
-527.0587150483
 10
477.8491974836
 20
-520.4032515382
 10
474.7029693687
 20
-513.6844589562
 10
471.7607414321
 20
-506.9173295557
 10
469.0290789349
 20
-500.1169634485
 10
466.5140772841
 20
-493.2985349104
 10
464.221348432
 20
-486.4772585218
 10
462.1560083531
 20
-479.6683552174
 10
460.3226656287
 20
-472.887018323
 10
458.7254111633
 20
-466.1483796529
 10
457.3678090561
 20
-459.467475745
 10
456.2528886484
 20
-452.8592143081
 10
455.3831377635
 20
-446.3383409576
 10
454.7604971558
 20
-439.9194063117
 10
454.3863561798
 20
-433.6167335235
 10
454.2615496904
 20
-427.4443863206
  0
LWPOLYLINE
  5
104
330
1F
100
AcDbEntity
  8
0
  6
Continuous
 62
     7
370
    25
100
AcDbPolyline
 90
       17
 70
   128
 43
0.0
 10
663.1399077457
 20
-226.4594477709
 10
666.6468842027
 20
-224.6753755366
 10
670.9082462941
 20
-222.8714548767
 10
675.3276854062
 20
-221.3790505355
 10
679.8966708336
 20
-220.2010432546
 10
684.6063832062
 20
-219.3397069047
 10
689.4477315133
 20
-218.7967040964
 10
694.4113706513
 20
-218.5730829711
 10
699.4877194623
 20
-218.6692751778
 10
704.6669792287
 20
-219.0850950395
 10
709.939152587
 20
-219.8197399122
 10
715.2940628253
 20
-220.8717917339
 10
720.7213735277
 20
-222.2392197616
 10
726.2106085254
 20
-223.9193844918
 10
731.7511721196
 20
-225.9090427549
 10
737.3323695332
 20
-228.2043539756
 10
737.5283137504
 20
-228.290172646
  0
LWPOLYLINE
  5
105
330
1F
100
AcDbEntity
  8
0
  6
Continuous
 62
     7
370
    25
100
AcDbPolyline
 90
       56
 70
   128
 43
0.0
 10
751.3167513332
 20
-235.2067302248
 10
754.2117652893
 20
-236.8770021808
 10
759.8472940813
 20
-240.3448546301
 10
765.469223625
 20
-244.0904950399
 10
771.0667020854
 20
-248.1066933172
 10
776.6289248243
 20
-252.3856971198
 10
782.1451552569
 20
-256.9192468203
 10
787.6047455755
 20
-261.6985914491
 10
792.9971573033
 20
-266.7145055863
 10
798.3119816364
 20
-271.9573071695
 10
803.5389595349
 20
-277.4168761822
 10
808.6680015267
 20
-283.0826741888
 10
813.6892071819
 20
-288.9437646762
 10
818.5928842241
 20
-294.9888341643
 10
823.3695672383
 20
-301.2062140441
 10
828.0100359425
 20
-307.5839031011
 10
832.5053329845
 20
-314.1095906811
 10
836.846781233
 20
-320.7706804532
 10
841.0260005256
 20
-327.5543147234
 10
845.0349238459
 20
-334.4473992543
 10
848.8658128942
 20
-341.4366285398
 10
852.511273025
 20
-348.5085114887
 10
855.9642675203
 20
-355.649397466
 10
859.2181311725
 20
-362.8455026423
 10
862.2665831502
 20
-370.0829366004
 10
865.1037391216
 20
-377.3477291473
 10
867.7241226131
 20
-384.6258572805
 10
870.1226755801
 20
-391.9032722565
 10
872.2947681709
 20
-399.1659267081
 10
874.2362076627
 20
-406.3998017602
 10
875.9432465555
 20
-413.5909340893
 10
877.4125898054
 20
-420.7254428772
 10
878.641401185
 20
-427.7895566041
 10
879.6273087579
 20
-434.7696396317
 10
880.3684094577
 20
-441.6522185236
 10
880.8632727606
 20
-448.4240080524
 10
881.1109434476
 20
-455.071936844
 10
881.1109434476
 20
-461.5831726091
 10
880.8632727606
 20
-467.9451469123
 10
880.3684094577
 20
-474.1455794332
 10
879.6273087579
 20
-480.1725016703
 10
878.641401185
 20
-486.0142800437
 10
877.4125898054
 20
-491.6596383508
 10
875.9432465555
 20
-497.0976795327
 10
874.2362076627
 20
-502.3179067081
 10
872.2947681709
 20
-507.3102434354
 10
870.1226755801
 20
-512.0650531628
 10
867.7241226131
 20
-516.5731578294
 10
865.1037391216
 20
-520.8258555814
 10
862.2665831502
 20
-524.8149375691
 10
859.2181311725
 20
-528.532703792
 10
855.9642675203
 20
-531.9719779619
 10
852.511273025
 20
-535.1261213552
 10
848.8658128942
 20
-537.9890456273
 10
845.0349238459
 20
-540.5552245649
 10
844.6120851118
 20
-540.8133845136
  0
SPLINE
  5
106
330
1F
100
AcDbEntity
  8
0
  6
Continuous
 62
     7
370
    25
100
AcDbSpline
210
0.0
220
0.0
230
1.0
 70
     8
 71
     3
 72
    12
 73
     8
 74
     0
 42
0.00000001
 43
0.00000001
 40
0.0
 40
0.0
 40
0.0
 40
0.0
 40
0.2440767899468223
 40
0.4881615822901426
 40
0.7320780858687155
 40
0.976066845339904
 40
1.0
 40
1.0
 40
1.0
 40
1.0
 10
742.9987628998733
 20
-244.7310386033957
 30
0.0
 10
742.2420560916788
 20
-244.5868966463681
 30
0.0
 10
740.7286176656062
 20
-244.2986080064187
 30
0.0
 10
738.881820096182
 20
-243.3784325451206
 30
0.0
 10
737.716945066972
 20
-242.2280808752853
 30
0.0
 10
737.2126949661573
 20
-241.3074436292133
 30
0.0
 10
737.3402992943884
 20
-240.8373042287989
 30
0.0
 10
737.3516980414179
 20
-240.7953072200121
 30
0.0
  0
SPLINE
  5
107
330
1F
100
AcDbEntity
  8
0
  6
Continuous
 62
     7
370
    25
100
AcDbSpline
210
0.0
220
0.0
230
1.0
 70
     8
 71
     3
 72
    13
 73
     9
 74
     0
 42
0.00000001
 43
0.00000001
 40
0.0
 40
0.0
 40
0.0
 40
0.0
 40
0.1127779051145376
 40
0.3043179789303336
 40
0.4957728405807117
 40
0.6872074687048494
 40
0.8787751852163141
 40
1.0
 40
1.0
 40
1.0
 40
1.0
 10
751.2205496261761
 20
-240.9116641390201
 30
0.0
 10
751.2315475964798
 20
-241.1829009947074
 30
0.0
 10
751.2612243322884
 20
-241.9148019078368
 30
0.0
 10
750.428916920652
 20
-243.0278380867726
 30
0.0
 10
748.9056240052521
 20
-244.0597041439262
 30
0.0
 10
746.8341068480156
 20
-244.7048926485088
 30
0.0
 10
744.7653930464526
 20
-244.9003516297213
 30
0.0
 10
743.4921980453697
 20
-244.7783292023596
 30
0.0
 10
742.9987628998733
 20
-244.7310386033957
 30
0.0
  0
LWPOLYLINE
  5
108
330
1F
100
AcDbEntity
  8
0
  6
Continuous
 62
     7
370
    25
100
AcDbPolyline
 90
       29
 70
   128
 43
0.0
 10
579.5608713167
 20
-324.3876999362
 10
580.538193243
 20
-325.0951792662
 10
581.2183071606
 20
-325.9104660194
 10
581.5671093177
 20
-326.7926783139
 10
581.5671093177
 20
-327.6975783413
 10
581.2183071606
 20
-328.5797906358
 10
580.538193243
 20
-329.3950773891
 10
579.5608713167
 20
-330.102556719
 10
578.335348384
 20
-330.6667526578
 10
576.9230772821
 20
-331.0593740652
 10
575.3948751811
 20
-331.2607332645
 10
573.8273725157
 20
-331.2607332645
 10
572.2991704147
 20
-331.0593740652
 10
570.8868993128
 20
-330.6667526578
 10
569.6613763801
 20
-330.102556719
 10
568.6840544538
 20
-329.3950773891
 10
568.0039405362
 20
-328.5797906358
 10
567.6551383791
 20
-327.6975783413
 10
567.6551383791
 20
-326.7926783139
 10
568.0039405362
 20
-325.9104660194
 10
568.6840544538
 20
-325.0951792662
 10
569.6613763801
 20
-324.3876999362
 10
570.8868993128
 20
-323.8235039974
 10
572.2991704147
 20
-323.43088259
 10
573.8273725157
 20
-323.2295233908
 10
575.3948751811
 20
-323.2295233908
 10
576.9230772821
 20
-323.43088259
 10
578.335348384
 20
-323.8235039974
 10
579.5608713167
 20
-324.3876999362
  0
LWPOLYLINE
  5
109
330
1F
100
AcDbEntity
  8
0
  6
Continuous
 62
     7
370
    25
100
AcDbPolyline
 90
       24
 70
   128
 43
0.0
 10
578.1466577543
 20
-325.2041080481
 10
578.9694261986
 20
-325.8304552979
 10
579.4689592954
 20
-326.5617223747
 10
579.6082089602
 20
-327.3436745446
 10
579.3768476825
 20
-328.1183179924
 10
578.7920344697
 20
-328.8282009573
 10
577.8971422425
 20
-329.4206746674
 10
576.7585410635
 20
-329.851798058
 10
575.4606757735
 20
-330.0895966793
 10
574.0998031037
 20
-330.1164340956
 10
572.7768527543
 20
-329.9303198984
 10
571.5899419008
 20
-329.5450573264
 10
570.6270982913
 20
-328.989219542
 10
569.9597316317
 20
-328.3040304909
 10
569.6373374541
 20
-327.5403075105
 10
569.6838262598
 20
-326.7546924405
 10
570.0957501868
 20
-326.0054507566
 10
570.8425587218
 20
-325.348150287
 10
571.8688644922
 20
-324.8315400006
 10
573.098551094
 20
-324.493934519
 10
574.4404182975
 20
-324.3603724963
 10
575.7949459507
 20
-324.4407596167
 10
577.0616749343
 20
-324.7291339353
 10
578.1466577543
 20
-325.2041080481
  0
LWPOLYLINE
  5
10A
330
1F
100
AcDbEntity
  8
0
  6
Continuous
 62
     7
370
    25
100
AcDbPolyline
 90
       29
 70
   128
 43
0.0
 10
739.3670038649
 20
-232.1335833003
 10
738.3896819386
 20
-231.4261039704
 10
737.709568021
 20
-230.6108172171
 10
737.3607658639
 20
-229.7286049226
 10
737.3607658639
 20
-228.8237048952
 10
737.709568021
 20
-227.9414926007
 10
738.3896819386
 20
-227.1262058474
 10
739.3670038649
 20
-226.4187265175
 10
740.5925267976
 20
-225.8545305787
 10
742.0047978995
 20
-225.4619091713
 10
743.5330000004
 20
-225.2605499721
 10
745.1005026659
 20
-225.2605499721
 10
746.6287047669
 20
-225.4619091713
 10
748.0409758688
 20
-225.8545305787
 10
749.2664988015
 20
-226.4187265175
 10
750.2438207278
 20
-227.1262058474
 10
750.9239346453
 20
-227.9414926007
 10
751.2727368024
 20
-228.8237048952
 10
751.2727368024
 20
-229.7286049226
 10
750.9239346453
 20
-230.6108172171
 10
750.2438207278
 20
-231.4261039704
 10
749.2664988015
 20
-232.1335833003
 10
748.0409758688
 20
-232.6977792391
 10
746.6287047669
 20
-233.0904006465
 10
745.1005026659
 20
-233.2917598457
 10
743.5330000004
 20
-233.2917598457
 10
742.0047978995
 20
-233.0904006465
 10
740.5925267976
 20
-232.6977792391
 10
739.3670038649
 20
-232.1335833003
  0
LWPOLYLINE
  5
10B
330
1F
100
AcDbEntity
  8
0
  6
Continuous
 62
     7
370
    25
100
AcDbPolyline
 90
       24
 70
   128
 43
0.0
 10
740.7812174272
 20
-231.3171751885
 10
739.958448983
 20
-230.6908279386
 10
739.4589158862
 20
-229.9595608619
 10
739.3196662213
 20
-229.177608692
 10
739.5510274991
 20
-228.4029652441
 10
740.1358407119
 20
-227.6930822792
 10
741.0307329391
 20
-227.1006085691
 10
742.169334118
 20
-226.6694851786
 10
743.467199408
 20
-226.4316865572
 10
744.8280720779
 20
-226.4048491409
 10
746.1510224272
 20
-226.5909633381
 10
747.3379332808
 20
-226.9762259102
 10
748.3007768902
 20
-227.5320636946
 10
748.9681435499
 20
-228.2172527457
 10
749.2905377275
 20
-228.980975726
 10
749.2440489218
 20
-229.7665907961
 10
748.8321249948
 20
-230.5158324799
 10
748.0853164598
 20
-231.1731329495
 10
747.0590106894
 20
-231.6897432359
 10
745.8293240876
 20
-232.0273487175
 10
744.4874568841
 20
-232.1609107402
 10
743.1329292308
 20
-232.0805236198
 10
741.8662002473
 20
-231.7921493012
 10
740.7812174272
 20
-231.3171751885
  0
LWPOLYLINE
  5
10C
330
1F
100
AcDbEntity
  8
0
  6
Continuous
 62
     1
370
    25
100
AcDbPolyline
 90
       74
 70
   128
 43
0.0
 10
559.3820160997
 20
-285.188255917
 10
559.8776484997
 20
-284.9052183788
 10
563.9952703074
 20
-282.7816273366
 10
568.2801109778
 20
-280.9677677199
 10
572.7238996167
 20
-279.4671407653
 10
577.3180585175
 20
-278.2826430861
 10
582.0537197187
 20
-277.4165610814
 10
586.9217421212
 20
-276.8705665221
 10
591.9127291331
 20
-276.6457133245
 10
597.0170468081
 20
-276.7424355158
 10
602.224842441
 20
-277.160546396
 10
607.5260635864
 20
-277.8992388989
 10
612.9104774624
 20
-278.9570871493
 10
618.3676907031
 20
-280.3320492158
 10
623.8871694198
 20
-282.0214710519
 10
629.4582595352
 20
-284.0220916195
 10
635.0702073477
 20
-286.330049183
 10
640.7121802897
 20
-288.940888764
 10
646.3732878367
 20
-291.8495707403
 10
652.0426025295
 20
-295.0504805739
 10
657.7091810669
 20
-298.5374396483
 10
663.3620854291
 20
-302.3037171953
 10
668.9904039911
 20
-306.3420432868
 10
674.5832725854
 20
-310.644622868
 10
680.1298954721
 20
-315.2031508037
 10
685.6195661782
 20
-320.0088279098
 10
691.0416881635
 20
-325.0523779376
 10
696.3857952752
 20
-330.3240654799
 10
701.64157195
 20
-335.8137147626
 10
706.7988731263
 20
-341.5107292872
 10
711.8477438265
 20
-347.4041122842
 10
716.778438373
 20
-353.4824879402
 10
721.5814392
 20
-359.7341233565
 10
726.2474752248
 20
-366.1469511962
 10
730.7675397437
 20
-372.7085929778
 10
735.1329078172
 20
-379.406382969
 10
739.3351531115
 20
-386.2273926347
 10
743.3661641636
 20
-393.1584555927
 10
747.2181600386
 20
-400.1861930285
 10
750.8837053492
 20
-407.2970395199
 10
754.3557246075
 20
-414.4772692216
 10
757.6275158831
 20
-421.7130223603
 10
760.6927637395
 20
-428.9903319876
 10
763.5455514242
 20
-436.2951509396
 10
766.1803722903
 20
-443.6133789524
 10
768.5921404253
 20
-450.9308898786
 10
770.7762004683
 20
-458.2335589554
 10
772.7283365964
 20
-465.5072900683
 10
774.4447806622
 20
-472.7380429612
 10
775.9222194672
 20
-479.9118603375
 10
777.1578011574
 20
-487.0148948012
 10
778.149140728
 20
-494.0334355865
 10
778.8943246272
 20
-500.9539350232
 10
779.3919144497
 20
-507.7630346872
 10
779.6409497135
 20
-514.4475911857
 10
779.6409497135
 20
-520.994701528
 10
779.3919144497
 20
-527.3917280312
 10
778.8943246272
 20
-533.6263227148
 10
778.149140728
 20
-539.686451135
 10
777.1578011574
 20
-545.5604156151
 10
775.9222194672
 20
-551.2368778247
 10
774.4447806622
 20
-556.704880666
 10
772.7283365964
 20
-561.9538694236
 10
770.7762004683
 20
-566.9737121384
 10
768.5921404253
 20
-571.7547191646
 10
766.1803722903
 20
-576.2876618734
 10
763.5455514242
 20
-580.5637904671
 10
760.6927637395
 20
-584.5748508679
 10
757.6275158831
 20
-588.3131006513
 10
754.3557246075
 20
-591.7713239901
 10
750.8837053492
 20
-594.942845584
 10
747.2181600386
 20
-597.8215435435
 10
743.3661641636
 20
-600.401861208
 10
741.8676877453
 20
-601.2958003419
  0
LWPOLYLINE
  5
10D
330
1F
100
AcDbEntity
  8
0
  6
Continuous
 62
     1
370
    25
100
AcDbPolyline
 90
       74
 70
   128
 43
0.0
 10
577.0601880026
 20
-274.9828645021
 10
577.5553180294
 20
-274.700116981
 10
581.6729398371
 20
-272.5765259388
 10
585.9577805075
 20
-270.7626663221
 10
590.4015691464
 20
-269.2620393675
 10
594.9957280472
 20
-268.0775416884
 10
599.7313892484
 20
-267.2114596836
 10
604.5994116508
 20
-266.6654651243
 10
609.5903986628
 20
-266.4406119267
 10
614.6947163378
 20
-266.537334118
 10
619.9025119707
 20
-266.9554449982
 10
625.203733116
 20
-267.6941375011
 10
630.5881469921
 20
-268.7519857515
 10
636.0453602327
 20
-270.126947818
 10
641.5648389495
 20
-271.8163696541
 10
647.1359290649
 20
-273.8169902217
 10
652.7478768774
 20
-276.1249477852
 10
658.3898498193
 20
-278.7357873662
 10
664.0509573663
 20
-281.6444693425
 10
669.7202720592
 20
-284.8453791761
 10
675.3868505966
 20
-288.3323382505
 10
681.0397549587
 20
-292.0986157975
 10
686.6680735208
 20
-296.136941889
 10
692.2609421151
 20
-300.4395214702
 10
697.8075650018
 20
-304.9980494059
 10
703.2972357078
 20
-309.803726512
 10
708.7193576931
 20
-314.8472765398
 10
714.0634648048
 20
-320.1189640821
 10
719.3192414797
 20
-325.6086133649
 10
724.476542656
 20
-331.3056278894
 10
729.5254133562
 20
-337.1990108864
 10
734.4561079027
 20
-343.2773865425
 10
739.2591087297
 20
-349.5290219587
 10
743.9251447545
 20
-355.9418497984
 10
748.4452092734
 20
-362.50349158
 10
752.8105773469
 20
-369.2012815712
 10
757.0128226411
 20
-376.0222912369
 10
761.0438336932
 20
-382.9533541949
 10
764.8958295683
 20
-389.9810916307
 10
768.5613748788
 20
-397.0919381221
 10
772.0333941371
 20
-404.2721678238
 10
775.3051854128
 20
-411.5079209625
 10
778.3704332691
 20
-418.7852305898
 10
781.2232209539
 20
-426.0900495418
 10
783.85804182
 20
-433.4082775546
 10
786.2698099549
 20
-440.7257884808
 10
788.4538699979
 20
-448.0284575576
 10
790.4060061261
 20
-455.3021886705
 10
792.1224501918
 20
-462.5329415635
 10
793.5998889968
 20
-469.7067589397
 10
794.835470687
 20
-476.8097934034
 10
795.8268102577
 20
-483.8283341888
 10
796.5719941568
 20
-490.7488336255
 10
797.0695839794
 20
-497.5579332894
 10
797.3186192431
 20
-504.2424897879
 10
797.3186192431
 20
-510.7896001302
 10
797.0695839794
 20
-517.1866266335
 10
796.5719941568
 20
-523.421221317
 10
795.8268102577
 20
-529.4813497372
 10
794.835470687
 20
-535.3553142173
 10
793.5998889968
 20
-541.0317764269
 10
792.1224501918
 20
-546.4997792682
 10
790.4060061261
 20
-551.7487680259
 10
788.4538699979
 20
-556.7686107406
 10
786.2698099549
 20
-561.5496177668
 10
783.85804182
 20
-566.0825604756
 10
781.2232209539
 20
-570.3586890693
 10
778.3704332691
 20
-574.3697494701
 10
775.3051854128
 20
-578.1079992535
 10
772.0333941371
 20
-581.5662225924
 10
768.5613748788
 20
-584.7377441862
 10
764.8958295683
 20
-587.6164421458
 10
761.0438336932
 20
-590.1967598102
 10
759.5453567087
 20
-591.0906992711
  0
ENDSEC
  0
SECTION
  2
OBJECTS
  0
DICTIONARY
  5
C
330
0
100
AcDbDictionary
281
     1
  3
ACAD_GROUP
350
D
  3
ACAD_LAYOUT
350
1A
  3
ACAD_MLINESTYLE
350
17
  3
ACAD_PLOTSETTINGS
350
19
  3
ACAD_PLOTSTYLENAME
350
E
  3
ACAD_SCALELIST
350
47
  3
DWGPROPS
350
10E
  0
DICTIONARY
  5
D
102
{ACAD_REACTORS
330
C
102
}
330
C
100
AcDbDictionary
281
     1
  0
DICTIONARY
  5
1A
102
{ACAD_REACTORS
330
C
102
}
330
C
100
AcDbDictionary
281
     1
  3
Layout1
350
1E
  3
Layout2
350
26
  3
Model
350
22
  0
DICTIONARY
  5
17
102
{ACAD_REACTORS
330
C
102
}
330
C
100
AcDbDictionary
281
     1
  3
Standard
350
18
  0
DICTIONARY
  5
19
102
{ACAD_REACTORS
330
C
102
}
330
C
100
AcDbDictionary
281
     1
  0
ACDBDICTIONARYWDFLT
  5
E
102
{ACAD_REACTORS
330
C
102
}
330
C
100
AcDbDictionary
281
     1
  3
Normal
350
F
100
AcDbDictionaryWithDefault
340
F
  0
DICTIONARY
  5
47
102
{ACAD_REACTORS
330
C
102
}
330
C
100
AcDbDictionary
281
     1
  3
A0
350
48
  3
A1
350
49
  3
A2
350
4A
  3
A3
350
4B
  3
A4
350
4C
  3
A5
350
4D
  3
A6
350
4E
  3
A7
350
4F
  3
A8
350
50
  3
A9
350
51
  3
B0
350
52
  3
B1
350
53
  3
B2
350
54
  3
B3
350
55
  3
B4
350
56
  3
B5
350
57
  3
B6
350
58
  3
B7
350
59
  3
B8
350
5A
  3
B9
350
5B
  3
C0
350
5C
  3
C1
350
5D
  3
C2
350
5E
  3
C3
350
5F
  3
C4
350
60
  3
C5
350
61
  3
C6
350
62
  3
C7
350
63
  3
C8
350
64
  3
C9
350
65
  3
D0
350
66
  3
D1
350
67
  3
D2
350
68
  0
XRECORD
  5
10E
102
{ACAD_REACTORS
330
C
102
}
330
C
100
AcDbXrecord
280
     1
  1
DWGPROPS COOKIE
  2

  3

  4

  6

  7

  8
b.kav
  9

300
=
301
=
302
=
303
=
304
=
305
=
306
=
307
=
308
=
309
=
 40
0.0
 41
2460390.230120301
 42
2460390.230120486
  1

 90
        0
  0
LAYOUT
  5
1E
102
{ACAD_REACTORS
330
1A
102
}
330
1A
100
AcDbPlotSettings
  1

  2
none_device
  4

  6

 40
0.0
 41
0.0
 42
0.0
 43
0.0
 44
0.0
 45
0.0
 46
0.0
 47
0.0
 48
0.0
 49
0.0
140
0.0
141
0.0
142
1.0
143
1.0
 70
   688
 72
     1
 73
     0
 74
     5
  7

 75
    16
147
1.0
148
0.0
149
0.0
100
AcDbLayout
  1
Layout1
 70
     1
 71
     1
 10
0.0
 20
0.0
 11
420.0
 21
297.0
 12
0.0
 22
0.0
 32
0.0
 14
1.0000000000E+20
 24
1.0000000000E+20
 34
1.0000000000E+20
 15
-1.0000000000E+20
 25
-1.0000000000E+20
 35
-1.0000000000E+20
146
0.0
 13
0.0
 23
0.0
 33
0.0
 16
1.0
 26
0.0
 36
0.0
 17
0.0
 27
1.0
 37
0.0
 76
     0
330
1B
  0
LAYOUT
  5
26
102
{ACAD_REACTORS
330
1A
102
}
330
1A
100
AcDbPlotSettings
  1

  2
none_device
  4

  6

 40
0.0
 41
0.0
 42
0.0
 43
0.0
 44
0.0
 45
0.0
 46
0.0
 47
0.0
 48
0.0
 49
0.0
140
0.0
141
0.0
142
1.0
143
1.0
 70
   688
 72
     1
 73
     0
 74
     5
  7

 75
    16
147
1.0
148
0.0
149
0.0
100
AcDbLayout
  1
Layout2
 70
     1
 71
     2
 10
0.0
 20
0.0
 11
0.0
 21
0.0
 12
0.0
 22
0.0
 32
0.0
 14
0.0
 24
0.0
 34
0.0
 15
0.0
 25
0.0
 35
0.0
146
0.0
 13
0.0
 23
0.0
 33
0.0
 16
1.0
 26
0.0
 36
0.0
 17
0.0
 27
1.0
 37
0.0
 76
     0
330
23
  0
LAYOUT
  5
22
102
{ACAD_REACTORS
330
1A
102
}
330
1A
100
AcDbPlotSettings
  1

  2
none_device
  4
Letter_(8.50_x_11.00_Inches)
  6

 40
6.35
 41
6.35
 42
6.35000508
 43
6.35000508
 44
215.9
 45
279.4
 46
0.0
 47
0.0
 48
0.0
 49
0.0
140
0.0
141
0.0
142
1.0
143
1.0
 70
  1712
 72
     1
 73
     0
 74
     0
  7

 75
     0
147
1.0
148
0.0
149
0.0
100
AcDbLayout
  1
Model
 70
     1
 71
     0
 10
0.0
 20
0.0
 11
279.4
 21
215.9
 12
0.0
 22
0.0
 32
0.0
 14
0.0
 24
0.0
 34
0.0
 15
279.4
 25
215.9
 35
0.0
146
0.0
 13
0.0
 23
0.0
 33
0.0
 16
1.0
 26
0.0
 36
0.0
 17
0.0
 27
1.0
 37
0.0
 76
     0
330
1F
331
29
  0
MLINESTYLE
  5
18
102
{ACAD_REACTORS
330
17
102
}
330
17
100
AcDbMlineStyle
  2
Standard
 70
     0
  3

 62
   256
 51
90.0
 52
90.0
 71
     2
 49
0.5
 62
   256
  6
BYLAYER
 49
-0.5
 62
   256
  6
BYLAYER
  0
ACDBPLACEHOLDER
  5
F
102
{ACAD_REACTORS
330
E
102
}
330
E
  0
SCALE
  5
48
102
{ACAD_REACTORS
330
47
102
}
330
47
100
AcDbScale
 70
     0
300
1:1
140
1.0
141
1.0
290
     1
  0
SCALE
  5
49
102
{ACAD_REACTORS
330
47
102
}
330
47
100
AcDbScale
 70
     0
300
1:2
140
1.0
141
2.0
290
     0
  0
SCALE
  5
4A
102
{ACAD_REACTORS
330
47
102
}
330
47
100
AcDbScale
 70
     0
300
1:4
140
1.0
141
4.0
290
     0
  0
SCALE
  5
4B
102
{ACAD_REACTORS
330
47
102
}
330
47
100
AcDbScale
 70
     0
300
1:5
140
1.0
141
5.0
290
     0
  0
SCALE
  5
4C
102
{ACAD_REACTORS
330
47
102
}
330
47
100
AcDbScale
 70
     0
300
1:8
140
1.0
141
8.0
290
     0
  0
SCALE
  5
4D
102
{ACAD_REACTORS
330
47
102
}
330
47
100
AcDbScale
 70
     0
300
1:10
140
1.0
141
10.0
290
     0
  0
SCALE
  5
4E
102
{ACAD_REACTORS
330
47
102
}
330
47
100
AcDbScale
 70
     0
300
1:16
140
1.0
141
16.0
290
     0
  0
SCALE
  5
4F
102
{ACAD_REACTORS
330
47
102
}
330
47
100
AcDbScale
 70
     0
300
1:20
140
1.0
141
20.0
290
     0
  0
SCALE
  5
50
102
{ACAD_REACTORS
330
47
102
}
330
47
100
AcDbScale
 70
     0
300
1:30
140
1.0
141
30.0
290
     0
  0
SCALE
  5
51
102
{ACAD_REACTORS
330
47
102
}
330
47
100
AcDbScale
 70
     0
300
1:40
140
1.0
141
40.0
290
     0
  0
SCALE
  5
52
102
{ACAD_REACTORS
330
47
102
}
330
47
100
AcDbScale
 70
     0
300
1:50
140
1.0
141
50.0
290
     0
  0
SCALE
  5
53
102
{ACAD_REACTORS
330
47
102
}
330
47
100
AcDbScale
 70
     0
300
1:100
140
1.0
141
100.0
290
     0
  0
SCALE
  5
54
102
{ACAD_REACTORS
330
47
102
}
330
47
100
AcDbScale
 70
     0
300
2:1
140
2.0
141
1.0
290
     0
  0
SCALE
  5
55
102
{ACAD_REACTORS
330
47
102
}
330
47
100
AcDbScale
 70
     0
300
4:1
140
4.0
141
1.0
290
     0
  0
SCALE
  5
56
102
{ACAD_REACTORS
330
47
102
}
330
47
100
AcDbScale
 70
     0
300
8:1
140
8.0
141
1.0
290
     0
  0
SCALE
  5
57
102
{ACAD_REACTORS
330
47
102
}
330
47
100
AcDbScale
 70
     0
300
10:1
140
10.0
141
1.0
290
     0
  0
SCALE
  5
58
102
{ACAD_REACTORS
330
47
102
}
330
47
100
AcDbScale
 70
     0
300
100:1
140
100.0
141
1.0
290
     0
  0
SCALE
  5
59
102
{ACAD_REACTORS
330
47
102
}
330
47
100
AcDbScale
 70
     0
300
1/128" = 1'-0"
140
0.0078125
141
12.0
290
     0
  0
SCALE
  5
5A
102
{ACAD_REACTORS
330
47
102
}
330
47
100
AcDbScale
 70
     0
300
1/64" = 1'-0"
140
0.015625
141
12.0
290
     0
  0
SCALE
  5
5B
102
{ACAD_REACTORS
330
47
102
}
330
47
100
AcDbScale
 70
     0
300
1/32" = 1'-0"
140
0.03125
141
12.0
290
     0
  0
SCALE
  5
5C
102
{ACAD_REACTORS
330
47
102
}
330
47
100
AcDbScale
 70
     0
300
1/16" = 1'-0"
140
0.0625
141
12.0
290
     0
  0
SCALE
  5
5D
102
{ACAD_REACTORS
330
47
102
}
330
47
100
AcDbScale
 70
     0
300
3/32" = 1'-0"
140
0.09375
141
12.0
290
     0
  0
SCALE
  5
5E
102
{ACAD_REACTORS
330
47
102
}
330
47
100
AcDbScale
 70
     0
300
1/8" = 1'-0"
140
0.125
141
12.0
290
     0
  0
SCALE
  5
5F
102
{ACAD_REACTORS
330
47
102
}
330
47
100
AcDbScale
 70
     0
300
3/16" = 1'-0"
140
0.1875
141
12.0
290
     0
  0
SCALE
  5
60
102
{ACAD_REACTORS
330
47
102
}
330
47
100
AcDbScale
 70
     0
300
1/4" = 1'-0"
140
0.25
141
12.0
290
     0
  0
SCALE
  5
61
102
{ACAD_REACTORS
330
47
102
}
330
47
100
AcDbScale
 70
     0
300
3/8" = 1'-0"
140
0.375
141
12.0
290
     0
  0
SCALE
  5
62
102
{ACAD_REACTORS
330
47
102
}
330
47
100
AcDbScale
 70
     0
300
1/2" = 1'-0"
140
0.5
141
12.0
290
     0
  0
SCALE
  5
63
102
{ACAD_REACTORS
330
47
102
}
330
47
100
AcDbScale
 70
     0
300
3/4" = 1'-0"
140
0.75
141
12.0
290
     0
  0
SCALE
  5
64
102
{ACAD_REACTORS
330
47
102
}
330
47
100
AcDbScale
 70
     0
300
1" = 1'-0"
140
1.0
141
12.0
290
     0
  0
SCALE
  5
65
102
{ACAD_REACTORS
330
47
102
}
330
47
100
AcDbScale
 70
     0
300
1-1/2" = 1'-0"
140
1.5
141
12.0
290
     0
  0
SCALE
  5
66
102
{ACAD_REACTORS
330
47
102
}
330
47
100
AcDbScale
 70
     0
300
3" = 1'-0"
140
3.0
141
12.0
290
     0
  0
SCALE
  5
67
102
{ACAD_REACTORS
330
47
102
}
330
47
100
AcDbScale
 70
     0
300
6" = 1'-0"
140
6.0
141
12.0
290
     0
  0
SCALE
  5
68
102
{ACAD_REACTORS
330
47
102
}
330
47
100
AcDbScale
 70
     0
300
1'-0" = 1'-0"
140
12.0
141
12.0
290
     0
  0
ENDSEC
  0
EOF
